Cifra Club

Since I Don't Have You

Guns N' Roses

Tablatura: Principal (guitarra)
Tom: G
[Intro]

E|-------------------------------------------------------|
B|------13b15---b12r10------10-----10h11p10--------------|
G|----------------------12-------------------8-7---------| (2x)
D|--12---------------------------------------------------|
A|-------------------------------------------------------|
E|-------------------------------------------------------|
  
E|----14br--14--12h14p12-10------------------------------|
B|----------------------------10br----10--10h11p10-------|
G|---------------------------------12---------------10-8-|
D|-------------------------------------------------------|
A|-------------------------------------------------------|
E|-------------------------------------------------------|
  
E|-------------------------------------------------------|
B|-------------------------------------------------------|
G|--/9-11-9--11--14--11--9---7------7h9------------------|
D|-----------------------------9-------------------------|
A|-------------------------------------------------------|
E|-------------------------------------------------------|
 
G           C         D
I don't have plans and schemes
    G         C          D
And I don't have hopes and dreams
G          C
I don't have anything
Am            D
Since I don't have you
    G          C     D
And I don't have fond desires
    G          C      D
and I don't have happy hours
G          C
I don't have anything
Am                 G
Since I don't have you
Am                G
Happiness, and I guess
Am            G
I never will again
Am
When you walked out on me
G
In walked ol' misery

Am                     
 D
And she's been here since then.

[Solo] G Cm Am D

(spoken) Yeah, we're fucked!

G         Cm         D
I don't have love to share
G         Cm         D
And I don't have one who cares
G         Cm
I don't have anything
Am               D
Since I don't have you

( G  Em  Am  D )

You, you, you, oh, oh!
You, you, you, oh, oh!
You, you, you, oh, oh!
You, you, you, oh yeah!
reproducciones 23.599
Acordes para:

    0 comentarios

    mostrar más comentarios

    ¿Conseguiste tocar?

    41 tocaron 2 aún no

    ¡Graba un vídeo tocando Since I Don't Have You y envianoslo!

    00:00 / 00:00
    outros vídeos desta música
    repetir qualidade Automático
    Outros vídeos desta música
    00:00 / 00:00
    Automático
    OK