Cifra Club

Bajan

Gustavo Cerati

Cifrado: Principal (guitarra y guitarra eléctrica)
tono: G#m
Intro:       (E x4)

   E                          F#
E|-----0----------0---------| I-----0---------0----
B|--------0----2------------| I--------0----2------
G|-----------0| -------------I-----------0--------
D|--2-----------------------| I--4-----------------
A|--2-----------------------| I--4-----------------
E|--0----------------0--^3--| I--2-----------------
           TENGO TIEMPO        PARA SABER

   (slide)   C#m      C       B
E|-------2----4-------3-------2-----------------|
B|-------3----5-------5-------4-----------------|
G|-------4----6-------5-------4-----------------|
D|-------4----6-------5-------4-----------------|
A|-------2----4-------3-------2-----------------|
E|-------x-----x---------------------------------|
       B  LO QUE SUENO CONCLUYE EN ALGO.

           E           F#
       NO TE APUD S  YA MAS LOCO

          C#m         C         B
       PORQUE ES ENTONCES  CUANC  A S HORAS

       ***CORO***
         C#m    G#m
        BAJAN  EL DIA
           B    C    C#m
        ES VIDRIO B N G  

        C#m      G#m
        BAJAN A  NOCHE
           B    C    C#m
        TE OCULTA A  VOZ
           C
        Y ADEMAS
           A   G#m   F#
        VOS QUED S G  

           C#m     C
        DESPACIO TAMBIEN

                      C#m  D#  E    A
E|--------------x---x---x----5-----------|
B|--------------x---x---x----5-----------|
G|--------------6---8---9----6-----------|
D|--------------6---8---9----7-----------|
A|--------------4---6---7----7-----------|
E|---------------------------5-----------|
        PODES HALA R A  LUNA.

        (repite intro)
        E           F#
        VIEJO ROBLE DEL CAE NO

          C#m     C        B
        TUS HOJAS BEM PD  SE AGITAN ALGO
        E         F#
        NENA NENA QUE BIEN TE VES
          C#m     C
        CUANTO EN TUS OJOS
           B
        NO IMPORTA B  A S HORAS
00:00 / 00:00
Otros videos de esta canción
Repetir
Otros videos de esta canción
Composición de Luis Alberto Spinneta
687 vistas
    • ½ Tono
    • Am
    • Bbm
    • Bm
    • Cm
    • C#m
    • Dm
    • Ebm
    • Em
    • Fm
    • F#m
    • Gm
    • G#m
  • Agregar a la lista

    0 comentarios

    Ver todos los comentarios
    00:00 / 00:00
    OK