Cifra Club

Camuflaje

Gustavo Cerati

Cifrado: Principal (guitarra y guitarra eléctrica)
tono: Bm
E|-------------------------------------------------------------------|
solo 1              x1
(2:32 a 2:44)

E|-2-5-3-0----2-----|
B|--------------3-0-|
G|------------------|
D|------------------|
A|------------------|
E|------------------|

solo 2              x3
(3:26 a 3:41)

E|-7-10-7-9-7-6-5-3-0-|
B|--------------------|
G|--------------------|
D|--------------------|
A|--------------------|
E|--------------------|

solo 2 con final agregado
(3:41 a 3:50)

E|-7-10-7-9-7-6-5-3-0-| -0-3-----12-10-
B|--------------------| ---------------
G|--------------------| ---------------
D|--------------------| ---------------
A|--------------------| ---------------
E|--------------------| ---------------
********************************************************************
Para que suene mejor el tema, que la guitarra que hace
los solos toque constantemente como redondas estas dos
notas siguiendo el ritmo de la canción.

E|-0--7--|
B|-------|
G|-------|
D|-------|
A|-------|
E|-------|
00:00 / 00:00
Otros videos de esta canción
Repetir
Otros videos de esta canción
Composición de Gustavo Cerati
55 vistas
    • ½ Tono
    • Am
    • Bbm
    • Bm
    • Cm
    • C#m
    • Dm
    • Ebm
    • Em
    • Fm
    • F#m
    • Gm
    • G#m
  • Agregar a la lista

    0 comentarios

    Ver todos los comentarios

    ¿Lograste tocar?

    0 Tocaron 0 Aún no

    ¡Graba un video tocando Camuflaje y envíanoslo!

    00:00 / 00:00
    OK