Cifra Club

Convoy

Gustavo Cerati

Cifrado: Principal (guitarra y guitarra eléctrica)
Acompaña nuestras novedades de Cifra Club en español.
¡Sigue nuestro perfil en Instagram!
tono: C
Intro:

G              Dm          F                  C

E|---------10----------13----------10----------------10|
B|-----8-----------10----------10-----10---------8------8|
G|---7---7------10---10-----10---10-----10-----9---9------9|


Te encontré en un tren
dejando atrás toda la locura
Nos miramos bien
buscando nuestro punto de fuga


Arpegio 2º
   G           Am        F                   C

E|---------10----------8----------10----------------10|
B|-----8----------10---------10------10---------8------8|
G|---7---7------9---9-----10---10------10-----9---9------9|

Con tantas ganas de explorarnos
Todo salió como lo planeamos

Arpegio 3º
    G          Bm         F                  C

E|---------10----------10----------10----------------10|
B|-----8----------12---------10------10---------8------8|
G|---7---7------11--11-----10--10------10-----9---9------9|

Se soltó el vagón
Y volamos al espacio exterior



  Dm          A#
Proxima estación
           Dm         G  A#
mucho mas allá del sol
       Dm       A#
convoy espacial
              Dm          G   C  G
que tan lejos nos llevará.


(Intro)
Oìmos la galaxia explotar
Y cabalgamos otros planetas
Dormimos en las nubes de gas
Y en playas de relojes de arena



Arpegio 2º
Y cada noche una nueva luna
hicimos el amor en algunas

Arpegio 3º
Cuerpos a contraluz
guiados por la cruz del Sur



Bm         F
Dentro de un volcán
             Bm           G
ardimos de pasión mineral
           Bm           F
Nadie supo que nos pasó
                    C        A#
y ahora somos polvo cósmico.
Compositor não encontrado.
25 vistas
    • ½ Tono
    • A
    • Bb
    • B
    • C
    • Db
    • D
    • Eb
    • E
    • F
    • F#
    • G
    • Ab
  • Agregar a la lista

    0 comentarios

    Ver todos los comentarios

    ¿Lograste tocar?

    0 Tocaron 0 Aún no

    ¡Graba un video tocando Convoy y envíanoslo!

    00:00 / 00:00
    Outros vídeos desta música
    Repetir Calidad Automático
    Outros vídeos desta música
    00:00 / 00:00
    Automático
    OK