Cifra Club

Magia

Gustavo Cerati

Cifrado: Principal (guitarra y guitarra eléctrica)
tono: Am
   3  3  1 1 4 4   1 1 3  3  1 1 4  4  1 1 4  4  3  3  1 1
E|--10-10---------------10-10---------------------10-10-----|
B|--------8-8-12-12-8-8-------8-8-12-12-8-8-12-12-------8-8-|
G|----------------------------------------------------------|
D|----------------------------------------------------------|
A|----------------------------------------------------------|
E|----------------------------------------------------------|

 (*)
  1 1 4  4  3  3  2  2  1  1  2  2 1  1  2  2 1  1  2  2  1  1
E|-----------12-12-------12-12------12-12------12-12-------12-12-|
B|-9-9-13-13-------13-13-------13-13------13-13------13-13-------|
G|---------------------------------------------------------------|
D|---------------------------------------------------------------|
A|---------------------------------------------------------------|
E|---------------------------------------------------------------|

  2  2  1  1  4  4  3  3  1  1  1  1  4  4  3  3  2  2  1  1
E|-------------------13-13-------------------13-13-------14-14-|
B|-13-13-11-11-15-15-------11-11-11-11-15-15-------15-15-------|
G|-------------------------------------------------------------|
D|-------------------------------------------------------------|
A|-------------------------------------------------------------|
E|-------------------------------------------------------------|

  2  2  1  1  2  2  1  1  2  2  1  1  2  2  2  1  4  2  1  4
E|-------14-14-------14-14-------14-14----------14-17----12-15-|
B|-15-15-------15-15-------15-15-------15-15-15-------13-------|
G|-------------------------------------------------------------|
D|-------------------------------------------------------------|
A|-------------------------------------------------------------|
E|-------------------------------------------------------------|

  2  2  1  1  2  2  1  1  2  2  1  1  2  2  1  1  2  2
E|-------14-14-------14-14-------14-14-------14-14-------|
B|-15-15-------15-15-------15-15-------15-15-------15-15-|
G|-------------------------------------------------------|
D|-------------------------------------------------------|
A|-------------------------------------------------------|
E|-------------------------------------------------------|

  2  1  4  2  1  4
E|----14-17----12-15-|
B|-15-------13-------|
G|-------------------|
D|-------------------|
A|-------------------|
E|-------------------|
Composición de Gustavo Cerati
171 vistas
    • ½ Tono
    • Am
    • Bbm
    • Bm
    • Cm
    • C#m
    • Dm
    • Ebm
    • Em
    • Fm
    • F#m
    • Gm
    • G#m
  • Agregar a la lista

    0 comentarios

    Ver todos los comentarios
    00:00 / 00:00
    Otros videos de esta canción
    Repetir Calidad Automático
    Otros videos de esta canción
    00:00 / 00:00
    Automático
    OK