Cifra Club

Me Quedo Aquí

Gustavo Cerati

Cifrado: Versão 3 (guitarra y guitarra eléctrica)
tono: D
Intro (en vivo)

E|---------------------------------------------------------------|
B|--------------------12-12s13-13-12-----------------------------|
G|-11~--11-12-14~--14----------------14--14s16-16-14-12-11~------|
D|---------------------------------------------------------------|
A|---------------------------------------------------------------|
E|---------------------------------------------------------------|

E|---------------------------------------------------------------|
B|-----------------------------------10--------------------------|
G|---------------------7-9-11s9-7-9b----r9-7-(9)-----------------|
D|-14-12-11~--9-7--7s9-------------------------------------------|
A|---------------------------------------------------------------|
E|---------------------------------------------------------------|

E|---------------------------------------------------------------|
B|------15~----15-----------12s14----15-14---12------------------|
G|--s14-----14----14-----14-------14------14----14---------------|
D|-------------------12------------------------------------------|
A|---------------------------------------------------------------|
E|---------------------------------------------------------------|

E|---------------------------------------------------------------|
B|-------13-------13-------12----13-12---------------------------|
G|-------------12----12-------------------12----11~--------------|
D|-14-14----14----------14----14-------14----14------------------|
A|---------------------------------------------------------------|
E|---------------------------------------------------------------|

E|----12----14---------------------------------------------------|
B|-----------------------14----15---14-12------------13~---------|
G|-s12---s14--14-12~----------------------14-----12-----12--12---|
D|--------------------16----16---16------------14--14-----14-----|
A|---------------------------------------------------------------|
E|---------------------------------------------------------------|

E|----------------0--14~-----------------------------------------|
B|--------12~--------15~-----------------------------------------|
G|----12-----13------14~-----------------------------------------|
D|--14--14-----14-----0~-----------------------------------------|
A|---------------------------------------------------------------|
E|---------------------------------------------------------------|
00:00 / 00:00
Otros videos de esta canción
Repetir
Otros videos de esta canción
Composición de Gustavo Cerati
6 vistas
    • ½ Tono
    • A
    • Bb
    • B
    • C
    • Db
    • D
    • Eb
    • E
    • F
    • F#
    • G
    • Ab
  • Agregar a la lista

    0 comentarios

    Ver todos los comentarios

    ¿Lograste tocar?

    0 Tocaron 0 Aún no

    ¡Graba un video tocando Me Quedo Aquí y envíanoslo!

    00:00 / 00:00
    OK