Cifra Club

Profugos

Gustavo Cerati

Cifrado: Principal (guitarra y guitarra eléctrica)
tono: Bm
INTRO

E|------------------------------|
B|------------------------------|
G|------------------------------|
D|------------------------------|
A|-2-2-4-0-5----2-2-4-0-5-4-----|
E|-0-0-0-0-0----0-0-0-0-0-0-----|

E|----------------------------------------------------------------|
B|-------------------2--------------------------------------------|
G|---------------------4-2----------------------------------------|
D|-2-2-0-4-5-4---------------4-2---2-4)---------------------------|
A|-0-0-0-0-0-0-------------------4-------2-2-4-0-5---2-2-4-0-5-4--|
E|---------------------------------------0-0-0-0-0---0-0-0-0-0-0--|

E|-------------------------------------------|
B|---------------------------10--------------|
G|---------------------------11--------------|
D|-2-2-0-4-5-4--2-2-0-5-4-----9--------------|
A|-0-0-0-0-0-0--0-0-0-0-0----10--------------|
E|-------------------------------------------|

                        VERSO I


E|-5-5-5-5-5-5----------------------x-x-x-x--7-7-|
B|-7-7-5-8-8-7------10---10-10------x-x-x-x--7-7-|
G|-7-7-7-7-7-7------11---11-11------x-x-x-x--7-7-|
D|-7-7-7-7-7-7------9----9--9-------x-x-x-x--9-9-|
A|-5-5-5-5-5-5------10---10-10------x-x-x-x--9-9-|
E|-5-5-5-5-5-5----------------------x-x-x-x--7-7-|

SOMOS COMPLICES LOS C S


E|-10-7--------------|
B|-----10-7----------|
G|----------9-7------|
D|--------------9~---|
A|-------------------|
E|-------------------|

AL MENOS SE QUE HUYO PORQUE AMO

E|-----------------------------5-5-5-5-5-5-----------------------|
B|--------10--------10-8-7-5---7-7-5-8-8-7-----------------------|
G|------11-------11------------7-7-7-7-7-7-----------------------|
D|----9------------------------7-7-7-7-7-7-----------------------|
A|-10--------------------------5-5-5-5-5-5-----------------------|
E|-----------------------------5-5-5-5-5-5-----------------------|

NECEB TO DISTENCION
E|-----------------------------------------------------------------|
B|-----------------------------------------------------------------|
G|------11--------11-----------------------------------------------|
D|----9----9----9----9---------------------------------------------|
A|-10--------10----------------------------------------------------|
E|-----------------------------------------------------------------|
ESTAR ASÍ DESPIERTO (esta parte va con pua alternada)

E|-2-------------------------------------------------------------|
B|-2-------------------------------------------------------------|
G|-4-------------------------------------------------------------|
D|-4-------------------------------------------2-2-4-5-4---------|
A|-4-4-4-4-4-4--------2-2-4-5-4--2-2-4-5-------0-0-0-0-0---------|
E|-2-2-2-2-2-2--------0-0-0-0-0--| O-O-O-O--4-5--------------------

ES UN DELIRIO DE CONDENAC S


E|---------|
B|---------|
G|---------| aquí se repite el verso pero en ves de volver a hacer el
D|-2-2-4-5-| riff cerati canta el coro que es así.
A|-0-0-0-0-|
E|---------|

CORO:



E|-5------5------------7-------------7|
B|-7------5------------8-------------7|
G|-7------5------------9-------------7|
D|-7------7------------9-------------9|
A|-5------7------------7-------------9|
E|-5------5------------7-------------7|
NO SEAS TAN CRUEL     NO BUSQUES MAS PD TEXTOS

E|-5------5------------7------7------------8-------|
B|-7------5------------8------8----------7---------|
G|-7------5------------9------7--------9-----------|
D|-7------7------------9------9-----10-------------|
A|-5------7------------7------10-------------------|
E|-5------5------------7------7--------------------|

NO SEAS  TAN CRUEL  BEM PD  SEDM OS PROFUGOS LOS C OOOOS

E|-------------------------------------------------------|
B|-------7--------7----7-------7----7--------------------|
G|---------9----9---9----9---9---9----9------------------|
D|-----------9-------------9------------7----------------|
A|-----------------------------------------2-2-4-5-4-----|
E|-----------------------------------------0-0-0-0-0-----|

E|-------------------------------------------------|
B|-------------------------------------------------|
G|-------------------------------------------------|
D|----------------14-14-16-0-17---14-14-16-0-17----|
A|-14-14-0-16-17---0--0--0-0--0----0--0--0-0--0----|
E|--0--0--0-0--0-----------------------------------|

E|-16----------9-----------|
B|-15----------8-----------|
G|-16----x6----9------x6---|
D|-14----------7-----------|
A|-------------------------|
E|-------------------------|


ahora cerati dice "no tenemos donde ir"
esta parte es con pua alternada


E|-10-10-10-10-10-10---|
B|-10--8--7--x--x--7---| se repite 5 veces
G|-----------7--9------|
D|---------------------|
A|---------------------|
E|---------------------|
NO TENEMOS C NDE IR


ahora se repite el coro y despues de eso viene el solo que es asi


E|-------------------------------------------------|
B|-------------------------------------------------|
G|------0-3-0-0-3-0-0-3-0-3------12~--------------|
D|-------------------------------------------------|
A|-3~----------------------------------------------|
E|-------------------------------------------------|

e:-(PA)-15-15-15-15-15-15--15----------------------------------
B|----------------------------17--15--17--17)------------------|
G|-------------------------------------------------------------|
D|-------------------------------------------------------------|
A|-------------------------------------------------------------|
E|-------------------------------------------------------------|

E|-15------------------------------------------|
B|----17--15--17-------15----------------------|
G|---------------17~-----17-15-17-15-----------|
D|-----------------------------------17-15-----|
A|---------------------------------------------|
E|---------------------------------------------|

E|-15-17------------------------------------------------------------|
B|-------15-17------------------------------------------------------|
G|-------------15-17------------------------------------------------|
D|-------------------15-17------------------------------------------|
A|-------------------------15-17------------------------------------|
E|-------------------------------15-18-15/--------------------------|

E|-6-6-6--7-7/8---|
B|-3-3-3--4-4/5---|
G|----------------|
D|----------------|
A|----------------|
E|----------------|


ahora hace el riff y despues finaliza con los acordes del coro
yo me guie por el cover de ricardo faundez y algunos conciertos
de cerati como el pepsi music.
00:00 / 00:00
Otros videos de esta canción
Repetir
Otros videos de esta canción
Composición de Gustavo Cerati
598 vistas
    • ½ Tono
    • Am
    • Bbm
    • Bm
    • Cm
    • C#m
    • Dm
    • Ebm
    • Em
    • Fm
    • F#m
    • Gm
    • G#m
  • Agregar a la lista

    0 comentarios

    Ver todos los comentarios

    ¿Lograste tocar?

    0 Tocaron 0 Aún no

    ¡Graba un video tocando Profugos y envíanoslo!

    00:00 / 00:00
    OK