Cifra Club

Vivo

Gustavo Cerati

Cifrado: Principal (guitarra y guitarra eléctrica)
tono: G
  Em   Arr.*       D     A   C   G   Cmaj7
E|-7----7----------10-----0---0---3---0|
B|-8----7----------10-----2---1---3---0|
G|-9----7----------11-----2---0---0---0|
D|-9----7----------12-----2---2---0---2|
A|-7----7----------12-----0---3---2---3|
E|-x----x----------10-----x---x---3---x|

Intro x4:

E|-10-8-7---------7--|
B|-------8---8-10--8-|
G|--------9---------9|

Versos
Em - Arr.* - D - C
(Movimiento rápido, de Arr.* se desliza a D y
regresar a C normal con arpegio)

riff (con delay)
E|--------5--------|
B|-----4-----------|
G|--5-------------|

Em - Arr.* - D - C

Por aquello que encontré en tus ojos
por aquello que perdí en la lucha
conocer la otra mitad es poco
comprender que solo estar es más puro

Precoro:
A
  Me pondré el uniforme
     Cmaj7
De piel humana
        A
No esperaba
               Cmaj7
Tanto resplandor

Coro:
    G
El fin de amar
       A         G       A
es sentirse más vivo
    G
El fin del mar
   A            G       A
sentirse igual vivo


riff:

D|-5~~4~~3~~2-4-2------5~~4~~3~~2-4-2---|
A|---------------3~~-----------------3~~|
E|--------------------------------------|


Intro x4:

E|-10-8-7---------7--|
B|-------8---8-10--8-|
G|--------9---------9|

Y como el fuego reflejado en el agua

dibujaba partículas de dios

Coro:
    G
El fin de amar
       A         G       A
es sentirse más vivo
    G
El fin del mar
   A            G       A
sentirse igual vivo

G - A x2

Em - Arr.* ~ D - C X1(solo) + X2(letra)

conocer la otra mitad es poco
comprender que solo estar es más puro

Fin:

E|-10-8-7---------7----7|
B|-------8---8-10--8-10-|
G|--------9-------------|
00:00 / 00:00
Otros videos de esta canción
Repetir
Otros videos de esta canción
Composición de Gustavo Cerati
223 vistas
    • ½ Tono
    • A
    • Bb
    • B
    • C
    • Db
    • D
    • Eb
    • E
    • F
    • F#
    • G
    • Ab
  • Agregar a la lista

    0 comentarios

    Ver todos los comentarios
    00:00 / 00:00
    OK