Cifra Club

Ramona

Guster

Tab de bajo: Principal
Standard Tuning


Verse:

-13--13--11--13---13----13---------------------------------|
---------------11-----9------------------------------------|
-----------------------------------------------------------|
-----------------------------------------------------------|

Chorus:

-------------------------------------------------------------------|
-------------------------------------------------------------------|
-----------------2-2-2-2---------------------------2-2-2-2-2-2-2-2-|
-5-5-5-5-0-0-0-0---------2-2-2-2---5-5-5-5-0-0-0-0-----------------|


Other Part
"When I was younger and thought of myself..."

---------6---9|---------6---8|---------6---8|---------6---9|
-7---9--------|-7---9--------|-7---9--------|-7---9--------|
--------------|--------------|--------------|--------------|
--------------|--------------|--------------|--------------|

---------6-6-----|---------6-6-8-8|
-7-7-9-9-----9-9-|-7-7-9-9--------|
-----------------|----------------|
-----------------|----------------|


then just repeat the verse a few times and the chorus a few times
End With:
-13-13-11-13----13-11-11--9----|
-------------11----------------|
-------------------------------|
-------------------------------|


not too difficult
00:00 / 00:00
Otros videos de esta canción
Repetir
Otros videos de esta canción
Composición de Guster / Ryan Miller
10 exhibiciones
00:00 / 00:00
OK