Cifra Club

Amor de Primavera

Gusttavo Lima

Tablatura: Versão 2 (guitarra)
Já pensou em usar uma coleção de roupas do Cifra Club? Responda as perguntas abaixo e nos ajude nessa missão! →
tono: G
Intro: G  C  G  D  G  C  G

G              C                    G
O amor de primavera não termina no verão
                 D                         G   G7
No outono ele floresce, no inverno é só paixão
                    C                       G
Eu pensei que fosse fácil esquecer aquele amor
                   D   D7                 G   C G
Mas quando veio a saudade foi demais a minha dor
          C C# D                             G   C9 G9
Quando vem      a saudade foi demais a minha dor
      C9  D  G
Uuuuuuu uuu uu
      C9  D7 G C G9
Uuuuuuu uuu uu

                   C                       G
Coração que sai vencido quase sempre tem razão
                     D           D7       G9  C G9
E a razão que sempre vence nunca teve coração
   G7/9          G                     G
O amor é como um dia, é a luz na escuridão
                   D          D7        G   C G9
Traz de volta a alegria onde existe solidão
             C C# D          D7/9            G
Traz de volta      a alegria onde existe solidão.
      C   D7 G
Uuuuuuu uuu uu
      C   D7 G
Uuuuuuu uuu uuuuu
E|-9p7--7--9p7--7--9p7--7--9---9--7--5---/--9p7--7--9p7--7--9p7--7--7--7--6--5--|
B|------------------------------------------------------------------------------|
G|-9----9--9----9--9----9--9---9--9--7---/--9----9--9----9--9----9--9--9--8--7--|
D|------------------------------------------------------------------------------|
A|------------------------------------------------------------------------------|
E|------------------------------------------------------------------------------|

E|-5--5--7p5-5-5-5-7/9-7--5-5-7/9-7-----------2--4-5-4-2-0--|
B|------------------------------------2--4-5----------------|
G|-7--7--7---7-7-7-7/9-7--7-7-7/9-7-------------------------|
D|----------------------------------------------------------|
A|----------------------------------------------------------|
E|----------------------------------------------------------|
Composição de Ganimedes / Júlio Martins / Milton Melquior
Colaboración y revision:
  • rayner
53 reproducciones
    • ½ Tono
    • A
    • Bb
    • B
    • C
    • Db
    • D
    • Eb
    • E
    • F
    • F#
    • G
    • Ab
  • Adicionar à lista

    0 comentarios

    Ver todos os comentários

    ¿Conseguiste tocar?

    0 Tocaram 0 Ainda não

    Grave um vídeo tocando Amor de Primavera e nos envie!

    00:00 / 00:00
    outros vídeos desta música
    repetir qualidade Automático
    Outros vídeos desta música
    00:00 / 00:00
    Automático
    OK