Cifra Club

Calafrio

Gusttavo Lima

Tablatura: Principal
reproducciones 194
Tono: E
Intro 2x: E  B  C#m  A
E|--------------4-2-0---0-2-0-----------------------|
B|-5/7-5--4/5-4-------4-----------------------------|
G|--------------------------------------------------|
D|--------------------------------------------------|
A|--------------------------------------------------|
E|--------------------------------------------------|

E|-4/5-4-2-2/4-2-0-----0-0--------------------------|
B|-----------------4-2-----4-2-1/2------------------|
G|--------------------------------------------------|
D|--------------------------------------2-2---------|
A|--------------------------------------0-0---------|
E|--------------------------------------0-0---------|


B           F#                Abm
Você se rendeu aos meus costumes
             E
Soube controlar seus ciúmes
B            F#         Abm
E te fez pensar diferente
              E               B
O amor está muito presente em mim

F#m       E           B
Você é tudo que sonhei
F#m        E             B
Você deu bola e eu entrei ...

        E
Nesse amor
               B          C#m
De pele alma, corpo e coração
           Abm            A                E                  B
Saí desse mundo da desilusão e agora eu achei minha estrela perdida
       E                   B                C#m
Sem você meu mundo é tão triste, é tudo bagunçado
                 Abm              A
Dá calafrio no corpo, é mundo acabado
          B               E   B
Você é o amor da minha vida...
E|--------------------------------------------------|
B|--------10~-9--------9~-7-------6/7-6-------------|
G|--------------------------------------8-6-6h8-8-6-|
D|---7/9---------7/9--------------------------------|
A|--------------------------------------------------|
E|--------------------------------------------------|

E|------7~-6-----6~-4----4/9--10~-|
B|--------------------------------|
G|--5/6------5/6------------------|
D|--------------------------------|
A|--------------------------------|
E|--------------------------------|
Acordes para:

    0 comentarios

      mostrar más comentarios

      ¿Conseguiste tocar?

      10tocaron0aún no

      ¡Graba un vídeo tocando Calafrio y envianoslo!

      00:00 / 00:00
      outros vídeos desta música
      repetirqualidadeautomática
      Outro vídeos desta música
        00:00 / 00:00
        automática
        OK