Cifra Club

De Menina Pra Mulher

Gusttavo Lima

Cifrado: Principal (guitarra y guitarra eléctrica)
tono: E (con acordes en la forma de D) Capotraste en 2ª casa
[Intro] G  D  A  D  
        G  D  A  

E|------------------------------------------|
B|-/7-7-7/10-10-10/15-15--14-14h15p14-------|
G|------------------------------------------|
D|------------------------------------------|
A|------------------------------------------|
E|------------------------------------------|

E|------------------------------------------|
B|-12-12h14p12--10-10h12p10--7-7h10p7-------|
G|------------------------------------------|
D|------------------------------------------|
A|------------------------------------------|
E|------------------------------------------|

E|------------------------------------------|
B|----10----10----10----10------------------|
G|-11----11----11----11----9----------------|
D|------------------------------------------|
A|------------------------------------------|
E|------------------------------------------|

E|------------------------------------------|
B|---8---8---8---8-7------------------------|
G|-9---9---9---9----------------------------|
D|------------------------------------------|
A|------------------------------------------|
E|------------------------------------------|

E|------------------------------------------|
B|-/7-7-7/10-10-10/15-15--14-14h15p14-------|
G|------------------------------------------|
D|------------------------------------------|
A|------------------------------------------|
E|------------------------------------------|

E|------------------------------------------|
B|-12-12h14p12--10-10h12p10--7-7h10p7-------|
G|------------------------------------------|
D|------------------------------------------|
A|------------------------------------------|
E|------------------------------------------|

E|------------------------------------------|
B|----10----10----10----10------------------|
G|-11----11----11----11----9----------------|
D|------------------------------------------|
A|------------------------------------------|
E|------------------------------------------|

E|------------------------------------------|
B|---8---8---8---8--------------------------|
G|-9---9---9---9---7------------------------|
D|------------------------------------------|
A|------------------------------------------|
E|------------------------------------------|

[Primeira Parte]

 Bm             F#m
Já aprendi a te esquecer
  G                          D  A/C#
Agora viu que eu tô fazendo falta
   Bm               F#m
Tudo que eu fiz, nada valeu
  G                            D      
Agora vou fazer pra quem se importa

[Pré-Refrão]

            A          G
E a porta que você fechou
                      D
Ela chegou metendo o pé
          A
Sabe como é?
          Bm
Acho que não, né?
             G                      D
Tá aí a diferença de menina pra mulher
          A
Sabe como é?
          D
Acho que não, né?

[Refrão]

         Em
Você tá aí
          G
Ela tá aqui
        D
Você bateu
        A
Ela cuidou
         Em
Você tá aí
          G
Ela tá aqui
                  D
Enquanto cê não cresce

Arruma um pivete
                A
Pra chamar de amor

         Em
Você tá aí
          G
Ela tá aqui
        D
Você bateu
        A
Ela cuidou
         Em
Você tá aí
          G
Ela tá aqui
                  D
Enquanto cê não cresce

Arruma um pivete
                A
Pra chamar de amor

             G                      D
Tá aí a diferença de menina pra mulher
          A
Sabe como é?
          Bm
Acho que não, né?
             G                      D
Tá aí a diferença de menina pra mulher
          A  G
Sabe como é?
          D
Acho que não, né?

( G  D  A  Bm )
( G  D  A  Bm )

[Pré-Refrão]

            A          G
E a porta que você fechou
                      D
Ela chegou metendo o pé
          A
Sabe como é?
          Bm
Acho que não, né?
             G                      D
Tá aí a diferença de menina pra mulher
          A
Sabe como é?
          D
Acho que não, né?

[Refrão]

         Em
Você tá aí
          G
Ela tá aqui
        D
Você bateu
        A
Ela cuidou
         Em
Você tá aí
          G
Ela tá aqui
                  D
Enquanto cê não cresce

Arruma um pivete
                A
Pra chamar de amor

         Em
Você tá aí
          G
Ela tá aqui
        D
Você bateu
        A
Ela cuidou
         Em
Você tá aí
          G
Ela tá aqui
                  D
Enquanto cê não cresce

Arruma um pivete
                A
Pra chamar de amor

             G                      D
Tá aí a diferença de menina pra mulher
          A  G
Sabe como é? 
          D
Acho que não, né?

( Am  G  Am  G )
( A  Bm  G  A )

             G                      D
Tá aí a diferença de menina pra mulher
          A 
Sabe como é? 
          Bm
Acho que não, né?

             G                      D
Tá aí a diferença de menina pra mulher
          A  G
Sabe como é? 
          D
Acho que não, né?

[Final] G  D  A  D  
        
E|------------------------------------------|
B|-/7-7-7/10-10-10/15-15--14-14h15p14-------|
G|------------------------------------------|
D|------------------------------------------|
A|------------------------------------------|
E|------------------------------------------|

E|------------------------------------------|
B|-12-12h14p12--10-10h12p10--7-7h10p7-------|
G|------------------------------------------|
D|------------------------------------------|
A|------------------------------------------|
E|------------------------------------------|

E|------------------------------------------|
B|----10----10----10----10------------------|
G|-11----11----11----11----9----------------|
D|------------------------------------------|
A|------------------------------------------|
E|------------------------------------------|

E|------------------------------------------|
B|---8---8---8---8--------------------------|
G|-9---9---9---9---11-11--------------------|
D|------------------------------------------|
A|------------------------------------------|
E|------------------------------------------|
Composición de Allef Rodrigues / Gui Prado / Thales Gui / Thawan Alves / Vinni Miranda
Colaboración y revisión:
  • Thiago Almeida
  • Manoel Neto
134 vistas
    • ½ Tono
    • A
    • Bb
    • B
    • C
    • Db
    • D
    • Eb
    • E
    • F
    • F#
    • G
    • Ab
  • Agregar a la lista

    0 comentarios

    Ver todos los comentarios

    ¿Lograste tocar?

    12 Tocaron 2 Aún no

    ¡Graba un video tocando De Menina Pra Mulher y envíanoslo!

    00:00 / 00:00
    Outros vídeos desta música
    Repetir Calidad Automático
    Outros vídeos desta música
    00:00 / 00:00
    Automático
    OK