Cifra Club

Aprenda

Milu

Gusttavo Lima

Tablatura: Principal (guitarra)
Tom: D
[Intro] D  Bm  A  G  A
        Bm  A  G  A

E|------------------------------------------|
B|------------------------------------------|
G|-11-9p7h9p7h9----11-9p7h9p7h9-------------|
D|--------------9---------------9-----------|
A|------------------------------------------|
E|------------------------------------------|

E|------------------------------------------|
B|------------------------------------------|
G|-9-7p6h7p6h7----9-7p6h7p6h7---------------|
D|-------------7--------------7-------------|
A|------------------------------------------|
E|------------------------------------------|

E|------------------------------------------|
B|------------------------------------------|
G|-7-6p4h6p4h6----7-6p4h6p4h6---------------|
D|-------------5--------------5-5/7---------|
A|------------------------------------------|
E|------------------------------------------|

E|------------------------------------------|
B|------------------------------------------|
G|-11-9p7h9p7h9----11-9p7h9p7h9-------------|
D|--------------9---------------9-----------|
A|------------------------------------------|
E|------------------------------------------|

E|------------------------------------------|
B|------------------------------------------|
G|-9-7p6h7p6h7----9-7p6h7p6h7---------------|
D|-------------7--------------7-------------|
A|------------------------------------------|
E|------------------------------------------|

E|------------------------------------------|
B|------------------------------------------|
G|-7-6p4h6p4h6----7-6p4h6p4h6---------------|
D|-------------5--------------5-5/7---------|
A|------------------------------------------|
E|------------------------------------------|

[Primeira Parte]

D               A/C#           Bm
  Quem cai uma vez, vai cair três 
               G                 D
Só que eu tô caindo pela décima vez
               A/C#                 Bm
E quando eu decido que vou te esquecer
               G                  D
Cê fala que me ama só pra me prender

[Pré-Refrão] 

            G
Se você sentisse amor do tanto 
        A
Que cê sabe fazer 
       D             A/C#
Se me desse amor do tanto 
        Bm 
Que me dá prazer 
          G                            A
Mas você vem e vai e eu querendo algo mais

[Refrão]

           D     A/C#    Bm
Cê fica milu, milu, miludindo 
           G        D/F#   A
E eu fico nu, fico nu bar caído 
           D     A/C#    Bm
Cê fica milu, milu, miludindo 
           G        D/F#   A
E eu fico nu, fico nu bar caído 

( F#m  E  F#m  E )
( F#m  E  F#m  E )

[Solo 1] F#m  E  G  A

E|------------------------------------------|
B|------9-10--9-10-9h10p9h10p9h10p9h10p9----|
G|-9-11-------------------------------------|
D|------------------------------------------|
A|------------------------------------------|
E|------------------------------------------|

E|-16-14-12----------7-10-12-10h12p10h12p10-|
B|----------14-12--8------------------------|
G|------------------------------------------|
D|------------------------------------------|
A|------------------------------------------|
E|------------------------------------------|

E|-------10--14-14-14-12--------------------|
B|----12------------------------------------|
G|-12---------------------------------------|
D|------------------------------------------|
A|------------------------------------------|
E|------------------------------------------|

[Pré-Refrão] 

            G
Se você sentisse amor do tanto 
        A
Que cê sabe fazer 
       D             A/C#
Se me desse amor do tanto 
        Bm 
Que me dá prazer 
          G                            A
Mas você vem e vai e eu querendo algo mais

[Refrão]

           D     A/C#    Bm
Cê fica milu, milu, miludindo 
           G        D/F#   A
E eu fico nu, fico nu bar caído 
           D     A/C#    Bm
Cê fica milu, milu, miludindo 
           G        D/F#   A
E eu fico nu, fico nu bar caído

( Bm  A  G  A )
( Bm  A  G  A )
( G  A )

E|-14-12-10h12p10-----14-12-10--------------|
B|----------------12-----------12-----------|
G|------------------------------------------|
D|------------------------------------------|
A|------------------------------------------|
E|------------------------------------------|

E|-12-10-9h10p9-----12-10h910p9-------------|
B|--------------10--------------12----------|
G|------------------------------------------|
D|------------------------------------------|
A|------------------------------------------|
E|------------------------------------------|

E|-10-9h10p9-7------------------------------|
B|-------------10-8-7h8p7-------------------|
G|------------------------9-7-6-------------|
D|------------------------------9-7-9-7-9-7-|
A|------------------------------------------|
E|------------------------------------------|

E|------------------------------------------|
B|------------------------------------------|
G|-11-9p7h9p7h9----11-9p7h9p7h9-------------|
D|--------------9---------------9-----------|
A|------------------------------------------|
E|------------------------------------------|

E|------------------------------------------|
B|------------------------------------------|
G|-9-7p6h7p6h7----9-7p6h7p6h7---------------|
D|-------------7--------------7-------------|
A|------------------------------------------|
E|------------------------------------------|

E|------------------------------------------|
B|------------------------------------------|
G|-7-6p4h6p4h6----7-6p4h6p4h6---------------|
D|-------------5--------------5-5/7---------|
A|------------------------------------------|
E|------------------------------------------|

E|------------------------------------------|
B|------------------------------------------|
G|------------------------------------------|
D|-5/7-7/9-9/11-11/12-12--------------------|
A|------------------------------------------|
E|------------------------------------------|

E|------------------------------------------|
B|------------------------------------------|
G|------------------------------------------|
D|-7/9-9/11-11/12-12/14-14------------------|
A|------------------------------------------|
E|------------------------------------------|

           D     A/C#    Bm
Cê fica milu, milu, miludindo 
           G        D/F#   A
E eu fico nu, fico nu bar caído 
           D     A/C#    Bm
Cê fica milu, milu, miludindo 
           G        D/F#   A    D
E eu fico nu, fico nu bar caído
Compositor Denner Ferrari / Edu Braga / Fabricio Fafa / Felipe Goffi / Jimmy Luzzo / Rick Monteiro
Colaboración y revision:
  • Lucas Kappaun
  • Yan
103 reproducciones
    • ½ Tom
    • A
    • Bb
    • B
    • C
    • Db
    • D
    • Eb
    • E
    • F
    • F#
    • G
    • Ab
  • Adicionar à lista

    0 comentarios

    Mostrar mais comentários

    ¿Conseguiste tocar?

    18 Tocaron 5 Ainda não

    Grave um vídeo tocando Milu e mande pra gente!

    00:00 / 00:00
    outros vídeos desta música
    repetir qualidade Automático
    Outros vídeos desta música
    00:00 / 00:00
    Automático
    OK