Cifra Club

Rosas, Versos e Vinhos

Gusttavo Lima

Cifrado: Principal (guitarra y guitarra eléctrica)
tono: B
[Intro] B

[Refrão]

             B
Por você eu mudo o jeito de viver
             G#m
Vou ouvir vinil em vez de ouvir CD
             E             C#m
Por você eu deixo a badalação
          F#
Faço serenata, voz e violão

              B
Largo essa cidade pra morar no campo
          G#m
Faço penitência troco até de santo
             E          C#m
Por você cancelo a reunião
             F#
O meu compromisso é com seu coração

( B  E  B  E  B )

[Primeira Parte]

B                             E
É, às vezes acho que estou enlouquecendo
       B                           E
Por você fujo, viajo no tempo, me submetendo
  B/D# C#m          B                     F#/A# 
Pra você meu mundo gira em preto em branco
       F#
E colorido
       C#m         B                   
Sem você saio do presente pro passado
   F#/A#              F#   B  E  B
E no futuro eu tô perdido

[Refrão]

             B
Por você eu mudo o jeito de viver
             G#m
Vou ouvir vinil em vez de ouvir CD
             E             C#m
Por você eu deixo a badalação
          F#           ( F#  E/G#  F#/A# )
Faço serenata, voz e violão

              B
Largo essa cidade pra morar no campo
          G#m
Faço penitência troco até de santo
             E          C#m
Por você cancelo a reunião
             F#
O meu compromisso é com seu coração

          F#/A#       B         
Mas me espera que eu tô chegando
 G#m
Tô levando
 E       B/D#     C#m  
Rosas e versos e vinhos
      F#          B9         
Me espera que eu tô chegando
 G#m
Tô voltando
 E       B/D#      C#m        B        F#/A#
Seja no tempo que for eu só quero esse amor

( G#m  F# )

B                        E
É, agora separar a gente

O tempo é incapaz

Por você

[Solo] B  E  A  F# 

E|------------------------------------------|
B|---------------7\5--4-----5p4-------------|
G|-------------8--------4~------4-----------|
D|---------6h9---------------------4/6------|
A|-----6h9-----------------------------7----|
E|-7h9-----------------------------------7~-|

           \/
E|------------------------------------------|
B|-/9-11-12-------12b14r12-------11--12--14-|
G|------------9-9----------9-9~-------------|
D|------------------------------------------|
A|------------------------------------------|
E|------------------------------------------|

E|-11b12r11p9-11~/-19~----------------------|
B|------------------------------------------|
G|------------------------------------------|
D|------------------------------------------|
A|------------------------------------------|
E|------------------------------------------|

[Refrão]

             B
Por você eu mudo o jeito de viver
             G#m
Vou ouvir vinil em vez de ouvir CD
             E             C#m
Por você eu deixo a badalação
          F#           ( F#  E/G#  F#/A# )
Faço serenata, voz e violão

              B
Largo essa cidade pra morar no campo
          G#m
Faço penitência troco até de santo
             E          C#m
Por você cancelo a reunião
             F#
O meu compromisso é com seu coração

          F#/A#       B         
Mas me espera que eu tô chegando
 G#m
Tô levando
 E       B/D#     C#m  
Rosas e versos e vinhos
      F#          B9         
Me espera que eu tô chegando
 G#m
Tô voltando
 E       B/D#      C#m        B        F#/A#
Seja no tempo que for eu só quero esse amor

( G#m  F# )

B                       E
É, eu acho que estou enlouquecendo
       B
Por você!
Composición de Ivan Medeiros / Pascoal
3.075 vistas
    • ½ Tono
    • A
    • Bb
    • B
    • C
    • Db
    • D
    • Eb
    • E
    • F
    • F#
    • G
    • Ab
  • Agregar a la lista

    0 comentarios

    Ver todos los comentarios

    ¿Lograste tocar?

    46 Tocaron 11 Aún no

    ¡Graba un video tocando Rosas, Versos e Vinhos y envíanoslo!

    00:00 / 00:00
    Outros vídeos desta música
    Repetir Calidad Automático
    Outros vídeos desta música
    00:00 / 00:00
    Automático
    OK