Cifra Club

Termina Comigo Antes

Gusttavo Lima

Chords: Principal (acoustic and electric guitars)
tone: Am (chord shape for key of Em) Capo on fret 5
[Intro] Em  C9  G  D/F#

[Tab - Intro]

[Parte 1 De 2] 
   Em7               C9
E|------x------x----------x-------x------------|
B|----0-x-0--0-x--------3-x-3--3--x------------|
G|----0-x-0--0-x--------0-x-0--0--x------------|
D|----2-x-2--2-x-x------2-x-2--2--x-x----------|
A|------x------x-----3----x-3-----x------------|
E|-0----x-0----x----------x-------x------------|

Parte 2 De 2
   G                 D/F#
E|------x------x-----x-------------------------|
B|----3-x-3--3-x-----3-------------------------|
G|----0-x-0--0-x-----2-------------------------|
D|----0-x-0--0-x-x---0-------------------------|
A|------x------x-----x-------------------------|
E|-3----x-3----x-----2-------------------------|
                     ↓
[Tab - Solo Intro]

E|---------------------------------------------|
B|-3/5~--3/5~--3/5-3~--------------------------|
G|---------------------2/4-2-------------------|
D|--------------------------------4/5\4-4\2-2--|
A|---------------------------------------------|
E|---------------------------------------------|

[Primeira Parte]

[Tab - Primeira Parte]

[Parte 1 De 2] 
   Em7               C9
E|------x------x----------x-------x------------|
B|----0-x-0--0-x--------3-x-3--3--x------------|
G|----0-x-0--0-x--------0-x-0--0--x------------|
D|----2-x-2--2-x-x------2-x-2--2--x-x----------|
A|------x------x-----3----x-3-----x------------|
E|-0----x-0----x----------x-------x------------|

Parte 2 De 2
   G                D/F#
E|------x------x---------x------x--------------|
B|----3-x-3--3-x-------3-x-3--3-x--------------|
G|----0-x-0--0-x-------2-x-2--2-x--------------|
D|----0-x-0--0-x-x-----0-x-0--0-x-x------------|
A|------x------x---------x------x--------------|
E|-3----x-3----x-----2---x-2----x--------------|

Em      C9        G
   Quem ama dá valor
   D/F#         Em
E pensa no que faz
  C9            G
Quando existe amor
   D/F#         Em
O coração não trai

[Pré-Refrão] 

[Tab - Pré-Refrão]

[Parte 1 De 3] 
   Em7               C9
E|------x------x----------x-------x------------|
B|----0-x-0--0-x--------3-x-3--3--x------------|
G|----0-x-0--0-x--------0-x-0--0--x------------|
D|----2-x-2--2-x-x------2-x-2--2--x-x----------|
A|------x------x-----3----x-3-----x------------|
E|-0----x-0----x----------x-------x------------|

Parte 2 De 3
   G                D/F#
E|------x------x---------x------x--------------|
B|----3-x-3--3-x-------3-x-3--3-x--------------|
G|----0-x-0--0-x-------2-x-2--2-x--------------|
D|----0-x-0--0-x-x-----0-x-0--0-x-x------------|
A|------x------x---------x------x--------------|
E|-3----x-3----x-----2---x-2----x--------------|

Parte 3 De 3
   G                C    D4     G
E|------x------x-------------------------------|
B|----3-x-3--3-x----0h1--1/3----8--------------|
G|----0-x-0--0-x----0----0-0----0--------------|
D|----0-x-0--0-x----0h2--2/4----9--------------|
A|------x------x----3----3/5----10-------------|
E|-3----x-3----x-------------------------------|

       C9                G
Tô sentindo você tão distante
        D/F#              Em
Se arrumando demais pra sair
      C9             G
Cada dia tá mais elegante
       D/F#                G  C9  D4  G  
Tô sentindo que não é pra mim

[Refrão]

[Tab - Refrão]

[Parte 1 De 7] 
   C/D  G                D/F#
E|-0---------x------x---------x------x---------|
B|-1-------3-x-3--3-x-------3-x-3--3-x---------|
G|-0-------0-x-0--0-x-------2-x-2--2-x---------|
D|-0-------0-x-0--0-x-x-----0-x-0--0-x-x-------|
A|-----------x------x---------x------x---------|
E|------3----x-3----x-----2---x-2----x---------|

Parte 2 De 7
   Em7               C9
E|------x------x----------x-------x------------|
B|----0-x-0--0-x--------3-x-3--3--x------------|
G|----0-x-0--0-x--------0-x-0--0--x------------|
D|----2-x-2--2-x-x------2-x-2--2--x-x----------|
A|------x------x-----3----x-3-----x------------|
E|-0----x-0----x----------x-------x------------|

Parte 3 De 7
   G                D/F#
E|------x------x---------x------x--------------|
B|----3-x-3--3-x-------3-x-3--3-x--------------|
G|----0-x-0--0-x-------2-x-2--2-x--------------|
D|----0-x-0--0-x-x-----0-x-0--0-x-x------------|
A|------x------x---------x------x--------------|
E|-3----x-3----x-----2---x-2----x--------------|

Parte 4 De 7
   Em  D/F#  G  G/B  C9
E|-----------------------x------x--------------|
B|-0----3----0---3----5--x-5--5-x--------------|
G|-0----2----0---0----0--x-0--0-x--------------|
D|-2----0----0---0----0--x-0--0-x-x------------|
A|---------------2----3--x-3----x--------------|
E|-0----2----3-----------x------x--------------|

Parte 5 De 7
   G                D/F#
E|------x------x---------x------x--------------|
B|----3-x-3--3-x-------3-x-3--3-x--------------|
G|----0-x-0--0-x-------2-x-2--2-x--------------|
D|----0-x-0--0-x-x-----0-x-0--0-x-x------------|
A|------x------x---------x------x--------------|
E|-3----x-3----x-----2---x-2----x--------------|

Parte 6 De 7
   Em7               C9
E|------x------x----------x-------x------------|
B|----0-x-0--0-x--------3-x-3--3--x------------|
G|----0-x-0--0-x--------0-x-0--0--x------------|
D|----2-x-2--2-x-x------2-x-2--2--x-x----------|
A|------x------x-----3----x-3-----x------------|
E|-0----x-0----x----------x-------x------------|

Parte 7 De 7
   G  H.N H.N    D/F#
E|---------------------------------------------|
B|-0-------------3-----------------------------|
G|-0--7----------2-----------------------------|
D|-0------7------0-----------------------------|
A|---------------------------------------------|
E|-3-------------2-----------------------------|
      
                C/D           
Se resolver trocar 
                  G
O amor por um instante
    D/F#       
Termina comigo antes
Em                C9           G
  Se pra você eu sou insignificante
    D/F#       
Termina comigo antes

Em     D/F#  G      G/B  C9
   Se resol_ver trocar 
                  G
O amor por um instante
    D/F#       
Termina comigo antes
Em                C9           G
  Se pra você eu sou insignificante
    D/F#       Em7   C9  G  D/F#
Termina comigo antes

[Tab - Solo]

E|---------------------------------------------|
B|-3/5~--3/5~--3/5-3~-/7-7~--7/8\7-7/12-12~----|
G|---------------------------------------------|
D|---------------------------------------------|
A|---------------------------------------------|
E|---------------------------------------------|

[Pré-Refrão] 

Em7        C9                G
    Tô sentindo você tão distante
        D/F#              Em7
Se arrumando demais pra sair
      C9             G
Cada dia tá mais elegante
       D/F#                G  C9  D4
Tô sentindo que não é pra mim

[Refrão Final] 
             
G               C9
  Se resolver trocar 
                  G
O amor por um instante
    D/F#             
Termina comigo antes
Em7                 C9           G
    Se pra você eu sou insignificante
    D/F#            
Termina comigo antes

Em7     D/F#  G      G/B  C9
    Se resol_ver trocar 
                  G
O amor por um instante
    D/F#           
Termina comigo antes
Em7                 C9           G
    Se pra você eu sou insignificante
    D/F#       Em7
Termina comigo antes

    C9         G     
Termina comigo antes
    D/F#       Em7
Termina comigo antes
    C9         G     
Termina comigo antes   
      D/F#            Em7
Vai doer, mas termina antes
00:00 / 00:00
Other videos of this song
Repeat
Other videos of this song
2.987 views
  • Simplify chords
    • ½ Tone
    • Am
    • Bbm
    • Bm
    • Cm
    • C#m
    • Dm
    • Ebm
    • Em
    • Fm
    • F#m
    • Gm
    • G#m
  • Add to list

Afinação da cifra

Afinador online

    00:00 / 00:00
    Chapters
    • Apresentação
    • Tocando a Música
    • Acordes Introdução e Primeira Parte
    • Tocando Primeira Parte
    • Ensinando Introdução
    • Ensinando Primeira Parte
    • Acordes Pré-Refrão
    • Tocando Pré-Refrão
    • Ensinando Pré-Refrão
    • Acordes Refrão
    • Tocando Refrão
    • Ensinando Dedilhado Refrão
    • Ensinando Ritmo Refrão
    • Tocando Pré-Refrão com Ritmo
    • Ensinando Ritmo Padrão
    • Tocando Refrão Final
    • Ensinado Ritmo Refrão - Variação 1
    • Ensinado Ritmo Refrão - Variação 2
    • Tocando Solo Introdução
    • Ensinando Solo Introdução
    • Tocando Solo
    • Ensinando Solo
    • Encerramento
    OK