Cifra Club

Aprenda

Cupids Chokehole

Gym Class Heroes

Tablatura: Principal (guitarra)
Tom: E
Tabbed by:xthexfamousxbobx
Email:*

Tuning:EADGBe

Chorus:

e|---------------------------------------------------------------------------|
B|---------------------------------------------------------------------------|
G|---9-----9-----9-----9-----9-----9-----9-----9---8---9---------------------|
D|---x-----x-----x-----x-----x-----x-----x-----x---x---x---------------------|
A|---7-----7-----7-----7-----7-----7-----7-----7---6---7---------------------|
E|---------------------------------------------------------------------------|

Verse:

e|---------------------------------------------------------------------------|
B|---------------------------------------------------------------------------|
G|---9--9----9--9-----11--11-----11--11-----13---13-----13---13-----14---14--|
D|---x--x----x--x-----x---x------x---x------x----x------x----x------x----x---|
A|---7--7----7--7-----9---9------9---9------11---11-----11---11-----12---12--|
E|---------------------------------------------------------------------------|

e|---------------------------------------------------------------------------|
B|---------------------------------------------------------------------------|
G|---13--13-----9---9------9---9-----11--11----11--11----13--13-----13--13---|
D|---x---x------x---x------x---x-----x---x-----x---x-----x---x------x---x----|
A|---11--11-----7---7------7---7-----9---9-----9---9-----11--11-----11--11---|
E|---------------------------------------------------------------------------|

e|---------------------------------------------------------------------------|
B|---------------------------------------------------------------------------|
G|---13---13-----13---13-----------------------------------------------------|
D|---x----x------x----x------------------------------------------------------|
A|---11---11-----11---11-----------------------------------------------------|
E|---------------------------------------------------------------------------|

Ending Verse

e|---------------------------------------------------------------------------|
B|---------------------------------------------------------------------------|
G|---------------------------------------------------------------------------|
D|---------------------------------------------------------------------------|
A|---------------------------------------------------------------------------|
E|-9-9-9-9-9-9-9-9-11-11-11-11-11-11-11-11-12-12-12-12-12-12-12-12-14-14-14--|

e|---------------------------------------------------------------------------|
B|---------------------------------------------------------------------------|
G|-----------------------------------------------------------------14-14-14--|
D|-----------------------------------------------------------------x--x--x---|
A|-----------------------------------------------------------------12-12-12--|
E|-14-14-14-14-14-17-17-17-17-17-17-17-17-16-16-16-16-16-16-16-16------------|

e|---------------------------------------------------------------------------|
B|---------------------------------------------------------------------------|
G|-14-14-14-14-14-13-13-13-13-13-13-13-13------------------------------------|
D|-x--x--x--x--x--x--x--x--x--x--x--x--x-------------------------------------|
A|-12-12-12-12-12-11-11-11-11-11-11-11-11------------------------------------|
E|---------------------------------------------------------------------------|

Bridge

e|-----------------------------------------------------------------------------|
B|-----------------------------------------------------------------------------|
G|-----------------------------------------------------------------------------|
D|--------6--------4------6--------6--------7--6--4--------6--------4-----6----|
A|--4--4-----4--4-----4------4--4-----4--4-----------4--4-----4--4-----4-------|
E|-----------------------------------------------------------------------------|

e|---------------------------------------------------------------------------|
B|---------------------------------------------------------------------------|
G|---------------------------------------------------------------------------|
D|--------6--------7--6--4--------6--------4-----6--------6-------7--6--4----|
A|--4--4-----4--4-----------4--4-----4--4-----4-----4--4-----4--4------------|
E|---------------------------------------------------------------------------|

e|---------------------------------------------------------------------------|
B|---------------------------------------------------------------------------|
G|---------------------------------------------------------------------------|
D|-6-6-6-6-2-2-2-2-4-4-4-4-1-1-1-1-------------------------------------------|
A|---------------------------------------------------------------------------|
E|---------------------------------------------------------------------------|

Song Order!

Chorus 2x
Verse 4x
Chorus 4x
Verse 3x
Ending Verse
*pretty long pause*
Chorus 2x
Bridge 3x
Chorus 4x

yep, thats about it. i kinda guessed on the bridge part but it sounds alot like it, if 
have any corrections hit me up.

i got the song off *, check it out if you want to hear the rythm or try to 
mistakes. http://*?v=URu_B3-iI-s
Compositor Rick Davies / Roger Hodgson
46 reproducciones
    • ½ Tom
    • A
    • Bb
    • B
    • C
    • Db
    • D
    • Eb
    • E
    • F
    • F#
    • G
    • Ab
  • Adicionar à lista

    0 comentarios

    Mostrar mais comentários

    ¿Conseguiste tocar?

    0 Tocaron 0 Ainda não

    Grave um vídeo tocando Cupids Chokehole e mande pra gente!

    00:00 / 00:00
    outros vídeos desta música
    repetir qualidade Automático
    Outros vídeos desta música
    00:00 / 00:00
    Automático
    OK