Cifra Club

Aprenda

Guilty As Charged

Gym Class Heroes

Tab de bajo: Principal
(intro)
G|------------------------------------------------------------------------|
D|------------------------------------------------------------------------|
A|------------------------------------------------------------------------|
E|-5~-----------3---1~-----1---0~---0~--------5--[2 bar rest]---------5\--|

(refrão)
G|-------------------------------------------------------------------|\
D|-------------------------------------------------------------------|\ \ play
A|-------------------------------------------------------------------|\ / twice
E|-5-5--5-4-4--4-3-3--3-2-2~--2-1-1--1-4-4-0-4--5-0-4-0-5-0-5-0------|\

G|--------------------------------------------------------------|
D|--------------------------------------------------------------|
A|--------------------------------------------------------------|
E|-5---[2 bar rest]------------05--[1 bar rest]-5-0-4-0-5-0-5-0-|

(verso)
G|-----------------------------------------------------------------|
D|-----------------------------------------------------------------|
A|-----------------------------------------------------------------|
E|-4-5---5-4---4-3----3-2---2-1---1-4-4~-4-5-0-5-0-5-0-5-0---------|

G|---------------------------------------------------------------|\
D|---------------------------------------------------------------|\ \play
A|---------------------------------------------------------------|\ /twice
E|-5---5-4---4-3---3-2---2-1---1-4-4~-4-5-0-5-0-5-0-5-0----------|\

(refrão)
G|-------------------------------------------------------------------|\
D|-------------------------------------------------------------------|\ \ play
A|-------------------------------------------------------------------|\ / twice
E|-5-5--5-4-4--4-3-3--3-2-2~--2-1-1--1-4-4-0-4--5-0-4-0-5-0-5-0------|\

G|--------------------------------------------------------------|
D|--------------------------------------------------------------|
A|--------------------------------------------------------------|
E|-5---[2 bar rest]------------05--[1 bar rest]-5-0-5-0-5-0-5-0-|

(verso)
G|---------------------------------------------------------------|
D|---------------------------------------------------------------|
A|---------------------------------------------------------------|
E|-5-5-5-4---4-3----3-2---2-1---1-4-4~-4-5-0-5-0-5-0-5-0---------|

G|---------------------------------------------------------------|\
D|---------------------------------------------------------------|\ \play
A|---------------------------------------------------------------|\ /twice
E|-5---5-4---4-3---3-2---2-1---1-4-4~-4-5-0-5-0-5-0-5-0----------|\

(refrão)
G|-------------------------------------------------------------------|\
D|-------------------------------------------------------------------|\ \ play
A|-------------------------------------------------------------------|\ / twice
E|-5-5--5-4-4--4-3-3--3-2-2~--2-1-1--1-4-4-0-4--5-0-4-0-5-0-5-0------|\

(ponte)
G|---------------------------------------------|
D|---------------------------------------------|
A|---------------------------------------------|
E|-5~-----------3---1~-----1---0~---0~---------|

(refrão)
G|-------------------------------------------------------------------|\
D|-------------------------------------------------------------------|\ \ play
A|-------------------------------------------------------------------|\ / twice
E|-5-5--4-4--4-3-3--3-2-2~--2-1-1--1-4-4-0-4--5-0-4-0-5-0-5-0--------|\

(outro)
G|-----------------------------------------------------------------|
D|-----------------------------------------------------------------|
A|-----------------------------------------------------------------|
E|-5-5--5-4-4--4-3-3--3-2-2~--2-1-1--1-4-4-0-4--5-0-4-0-5-0-5-0----|

G|-----------------------------------------------------------------|
D|-----------------------------------------------------------------|
A|-----------------------------------------------------------------|
E|-5-5--5-4-4--4-3-3--3-2-2~--2-1-1--1-4-4-0-4--5-0-5-0-5-0-5-0----|

G|---------------------|
D|---------------------|
A|---------------------|
E|-5-0-5-0-5-0-5-5\----|
Compositor Gym Class Heroes
Colaboración y revision:
  • Jefferson Sousa
8 reproducciones

0 comentarios

Mostrar mais comentários

¿Conseguiste tocar?

0 Tocaron 0 Ainda não

Grave um vídeo tocando Guilty As Charged e mande pra gente!

00:00 / 00:00
outros vídeos desta música
repetir qualidade Automático
Outros vídeos desta música
00:00 / 00:00
Automático
OK