Cifra Club

Like Father Like Son

Gym Class Heroes

Tab de bajo: Principal
G|------------------------------------------------------------------------------|
D|------------------------------------------------------------------------------|
A|--------------3-3----1-------------------------3--3--------3--3---------------|
E|--1-----1--3-------1-------33-----3---5---3-----------------------------------|
    

G|---------------------------------------------------------------------------|
D|---------------------------------------------------------------------------|
A|----3--3------3--3-----3-1-0-----------------------------------------------|(2)
E|-----------------------------3-1-------------------------------------------|
00:00 / 00:00
Otros videos de esta canción
Repetir
Otros videos de esta canción
Compositor no encontrado.
Colaboración y revisión:
  • Jefferson Sousa
14 exhibiciones
00:00 / 00:00
OK