Cifra Club

Aprenda

Makeout Club

Gym Class Heroes

Tablatura: Principal (guitarra)
Tom: C
Tabbed by: Jordan Weissman
Email: *

Tuning:Standard (E A D G B e)
FYI: .=palm mute

Intro/riff played for most of song
e|---------888-000-888----------888-000-888----------777-000-777------------|
B|10-10-10-...-----...-10-10-10-...-----...-10-10-10-...-----...------------|
G|.*|
D|--------------------------------------------------------------------------|
A|--------------------------------------------------------------------------|
E|--------------------------------------------------------------------------|

e|---------777-000-777-----777-000-777-----777-000-777-----10-10-10-000-----|
B|10-10-10-...-----...-999-...-----...-999-...-----...*|
G|.*...-------------...-------------...--------------..--|
D|--------------------------------------------------------------------------|
A|--------------------------------------------------------------------------|
E|--------------------------------------------------------------------------|

e|10-10-000----0------------------------------------------------------------|
B|.*|
G|*|
D|--------------------------------------------------------------------------|
A|--------------------------------------------------------------------------|
E|--------------------------------------------------------------------------|

beakdown (bass does beats before each riff so its like, dum dum, then the riff each time)
e|------------------------------------------------|-----|-------------------|
B|------1---------------1---------------1---------|-----|-----1-------------|
G|0h2p0---2-0h2---0h2p0---2-0h2---0h2p0---2-0h2---|-2-2-|-0h2---------------|
D|------------------------------------------------|-----|-------------------|
A|--------------0-------------------------------0-|-----|-------------------|
E|------------------------------3-----------------|-----|-------------------|

second part of breakdown it repeats the riff but the last ending is
e|--------------------------------------------------------------------------|
B|-------------------1------------------------------------------------------|
G|1-1-instead of-0h2--------------------------------------------------------|
D|--------------------------------------------------------------------------|
A|--------------------------------------------------------------------------|
E|--------------------------------------------------------------------------|

| /  slide up
| \  slide down
| h  hammer-on
| p  pull-off
| ~  vibrato
| +  harmonic
| x  Mute note
===============================================================================
41 reproducciones
    • ½ Tom
    • A
    • Bb
    • B
    • C
    • Db
    • D
    • Eb
    • E
    • F
    • F#
    • G
    • Ab
  • Adicionar à lista

    0 comentarios

    Mostrar mais comentários

    ¿Conseguiste tocar?

    0 Tocaron 0 Ainda não

    Grave um vídeo tocando Makeout Club e mande pra gente!

    00:00 / 00:00
    outros vídeos desta música
    repetir qualidade Automático
    Outros vídeos desta música
    00:00 / 00:00
    Automático
    OK