Cifra Club

New Friend Request

Gym Class Heroes

Tab de bajo: Principal
hey hey im Ian and this is my first tab on u-g so be nice 
Tuning EADG
Intro
G----------------------|
D----------------------|
A4--4-55--55-4--4------|x1
E-2------------2-00--00|
Verse/Chrous/and rest of song
G-----------------------|
D-----------------------|
A---44-55-542---44------|x1
E-22----------22---00-00|

thats it thanks a lot for reading any questions add me or email me 
FamousS*
Compositor não encontrado.
9 vistas

0 comentarios

Ver todos los comentarios

¿Lograste tocar?

1 Tocaron 0 Aún no

¡Graba un video tocando New Friend Request y envíanoslo!

00:00 / 00:00
Outros vídeos desta música
Repetir Calidad Automático
Outros vídeos desta música
00:00 / 00:00
Automático
OK