Cifra Club

Aprenda

Papercuts

Gym Class Heroes

Tab de bajo: Principal
ORIGINALLY PLAYED ON A FIVE STRING
STANDARD TUNING
^=BEND

TABBED BY JAHNIA
BY EAR


INTRO(WAIT FEW SECONDS)

G--7-0-7-0-7-0-7-0-7-0-7-0-7-0-----|
D----------------------------------|
A----------------------------------|
E----------------------------------| PLAY THIS FOR A WHILE YOU'LL NOW WHEN TO STOP

-PAUSE/REST-

CHORUS

G------------------------------------------------------------------------|
D---------5----------5---------------------------------------------------|
A-------------------------------6------5-------3-------3------3------5---|
E----5-3-----5-3-----5-3----5-3-----5-3--- 5-3----5-3-----5-3---5-3------| X 2

-PAUSE/REST-

VERSE
("DONT FORGET TO TAKE YOUR MEDICINE,I HATE...")

G-------------------------------------|
D-------------------------------------|
A--------------5^-------5^-------5^---|
E---33333-3^-------3^-------3^--------| X4

PRE-CHORUS

G----------------------------|
D-----5------5---------------|
A----------------------------|
E--5-3----5-3----------- X 4-|

CHORUS

G------------------------------------------------------------------------|
D---------5----------5---------------------------------------------------|
A-------------------------------6------5-------3-------3------3------5---|
E----5-3-----5-3-----5-3----5-3-----5-3--- 5-3----5-3-----5-3---5-3------| X 2

-PAUSE/REST-

VERSE
("MAN THE NERVE WITH THIS BITCH,PARDON MY FRENCH")
G-------------------------------------|
D-------------------------------------|
A--------------5^-------5^-------5^---|
E---33333-3^-------3^-------3^--------| X4

PRE-CHORUS

G----------------------------|
D-----5------5---------------|
A----------------------------|
E--5-3----5-3----------- X 4-|

CHORUS/FADE OUT

G------------------------------------------------------------------------|
D---------5----------5---------------------------------------------------|
A-------------------------------6------5-------3-------3------3------5---|
E----5-3-----5-3-----5-3----5-3-----5-3--- 5-3----5-3-----5-3---5-3------|

PLAY TILL SONG IS DONE

------------------------------------------------------------------------------
16 reproducciones

0 comentarios

Mostrar mais comentários

¿Conseguiste tocar?

0 Tocaron 0 Ainda não

Grave um vídeo tocando Papercuts e mande pra gente!

00:00 / 00:00
outros vídeos desta música
repetir qualidade Automático
Outros vídeos desta música
00:00 / 00:00
Automático
OK