Cifra Club

Peace Sign Index Down

Gym Class Heroes

Tab de bajo: Principal
G|------------------------------|
D|------------------------------|
A|--33--------------------------|
E|-------66---44---4--34--------|

(refrão)
G|------------------------------|
D|------------------------------|
A|--3---------------------------|
E|-------6----4----3/15---------|
00:00 / 00:00
Otros videos de esta canción
Repetir
Otros videos de esta canción
Composición de Gym Class Heroes
Colaboración y revisión:
  • Jefferson Sousa
23 exhibiciones
00:00 / 00:00
OK