Cifra Club

Taxi Driver

Gym Class Heroes

Tab de bajo: Principal
00:11
|--------------------------------------------------------------|
|--------------------------------------------------------------|
|--------------------------------------------------------------|
|10-10-10--10-9-9--9-8-8-8--8-7-7--12-6-6--6-5-5---4--2--1--0--|


|-------------------------------------------------------------|
|-------------------------------------------------------------|
|-------------------------------------------------------------|
|10-10-10--10-9-9--9-8-8-8--8-7-7----6-6--6-5-5---4--2--1--0--|


|-------------------------------------------------------------|
|-------------------------------------------------------------|
|-------------------------------------------------------------|
|10-10-10--10-9-9--9-8-8-8--8-7-7----6-6----------------------|
                           "and fall out"

play this until 1:27
|--------------------------------------------------------------|
|--------------------------------------------------------------|
|--------------------------------------------------------------|
|10-10-10--10-9-9--9-8-8-8--8-7-7--12-6-6--6-5-5---4--2--1--0--|

then the outro is

|-----------------------|
|12-12-12-12-15-14-12-14|
|-----------------------|
|-----------------------|




-mint
Composición de Gym Class Heroes
10 vistas

0 comentarios

Ver todos los comentarios

¿Lograste tocar?

0 Tocaron 0 Aún no

¡Graba un video tocando Taxi Driver y envíanoslo!

00:00 / 00:00
Outros vídeos desta música
Repetir Calidad Automático
Outros vídeos desta música
00:00 / 00:00
Automático
OK