Cifra Club

The Queen And I

Gym Class Heroes

Cifrado: Principal (guitarra y guitarra eléctrica)
tono: G
GCH ROCKS


Gtr I
|--0-0--0-0-0----|
|--0-0--0-0-0----|
|--0-0--0-0-0----|
|--2-2--2-2-2----|
|--2-2--2-2-2----|
|----------------|


 Riff 2

|-0-0-------------|-----7-7-5-5-3-3-|-2-2-0-0---------|
|-----0-0-----7-7-|-----------------|---------3-3-1-1-|
|---------0-0-----|-5-5-------------|-----------------|
|-----------------|-----------------|-----------------|
|-----------------|-----------------|-----------------|
|-----------------|-----------------|-----------------|

|-----------------|-----------------|-----5-5-----7-7-|
|-0-0-------------|-------------7-7-|-----------------|
|-----2-2-0-0-----|-----4-4---------|-4-4-----5-5-----|
|-------------4-4-|-1-1-----4-4-----|-----------------|
|-----------------|-----------------|-----------------|
|-----------------|-----------------|-----------------|

|-------------------|------|
|-7--5--3-1-0-------|------|
|-------------2-0---|------|
|-----------------4-|-2----|
|-------------------|------|
|-------------------|------|


 Riff 3 (this is played behind the main chord at various parts in the song)
  Gtr II [ uses something like a wah to create a slapping sound ]
|--------------|
|--------------|
|--------------|
|-2-5-2-5-2----|
|--------------|
|--------------|

 Riff 4
|-2h3-2--2--0--|--------0----|
|-0---------0--|-1-1-1--0----|
|--------------|-2-2-2--0----|    -I'M NOT SURE ABOUT THIS PART
|--------------|-2-2-2--2----|
|--------------|--------2----|
|--------------|-------------|


 Riff 5
TP...................................................................
|-0-0-0-0-0-0-0-0-5-5-5-5-5-5-5-5-2-2-2-2-2-2-2-2-3-3-3-3-3-3-3-3---|
|-------------------------------------------------------------------|
|-------------------------------------------------------------------|
|-------------------------------------------------------------------|
|-------------------------------------------------------------------|
|-------------------------------------------------------------------|

Song order:
Riff 1 (about 27 times) w/ guitar 2 playing riff 3 about half way through)
Riff 3 (2x)
Riff 1 w/ guitar 2 playing riff 3 again
Riff 3 (2x)
Riff 4 (i'm not sure if this part is right but it sounds good i think)
Riff 3 (3x) w/ guitar 2 playing riff 5


Tablature Legend
----------------
 h   - hammer-on
 TP  - trem. picking
Compositor não encontrado.
Colaboración y revisión:
  • Skull Blackbird
19 vistas
    • ½ Tono
    • A
    • Bb
    • B
    • C
    • Db
    • D
    • Eb
    • E
    • F
    • F#
    • G
    • Ab
  • Agregar a la lista

    0 comentarios

    Ver todos los comentarios

    ¿Lograste tocar?

    0 Tocaron 0 Aún no

    ¡Graba un video tocando The Queen And I y envíanoslo!

    00:00 / 00:00
    Outros vídeos desta música
    Repetir Calidad Automático
    Outros vídeos desta música
    00:00 / 00:00
    Automático
    OK