Cifra Club

To Bob Ross With Love

Gym Class Heroes

Cifrado: Principal (guitarra y guitarra eléctrica)
tono: B
(0:00)
E|----2-2--5-3-2--------|
B|----2-2--------3-0----|
G|----2-2---------------|
D|----------------------| (8x)
A|----------------------|
E|----------------------|

(0:21)
E|--2-2--------2------2-2-----2-2-2-----------------|
B|--3-2h3p2h3--2h3p2--3-2h3p2h3-3-3p2h3p2-----------|
G|--2-2--------2------2-2-----2-2-2-----------------|
D|--4-2h4p2h4--2h4p2--4-2h4p2h4-4-4p2h4p2-----------|
A|--2-2--------2------2-2-----2-2-2-----------------|
E|--------------------------------------------------|

(0:26)
E|--9--9----------9-------9--9-9--9--9--------------|
B|--10-9h10p9h10--9h10p9--10-9-10-10-10p9h10p9------|
G|--9--9----------9-------9--9-9--9--9--------------|
D|--11-9h11p9h11--9h11p9--11-9-11-11-11p9h11p9------|
A|--9--9----------9-------9--9-9--9--9--------------|
E|--------------------------------------------------|

(0:31)                       (0:36)
E|----2-2--5-3-2--------|    |----2-2--5-3-2--------|
B|----2-2--------3-0----|    |----3-3--------3-0----|
G|----2-2---------------|    |----2-2---------------|
D|----------------------|x2  |----4-4---------------| (2x)
A|----------------------|    |----------------------|
E|----------------------|    |----------------------|

(0:42)
E|--9--9----------9-------9--9------9--9--9---------|
B|--10-9h10p9h10--9h10p9--10-9h10p9h10-10-10p9h10p9-|
G|--9--9----------9-------9--9------9--9--9---------|
D|--11-9h11p9h11--9h11p9--11-9h11p9h11-11-11p9h11p9-|
A|--9--9----------9-------9--9------9--9--9---------|
E|--------------------------------------------------|

(0:47)
E|--9--9----------9-------9--9-9--9--9--------------|
B|--10-9h10p9h10--9h10p9--10-9-10-10-10p9h10p9------|
G|--9--9----------9-------9--9-9--9--9--------------|
D|--11-9h11p9h11--9h11p9--11-9-11-11-11p9h11p9------|
A|--9--9----------9-------9--9-9--9--9--------------|
E|--------------------------------------------------|

(0:52)                       (0:57)
E|----2-2--5-3-2--------|    |----2-2--5-3-2--------|
B|----3-3--------3-0----|    |----2-2--------3-0----|
G|----2-2---------------|    |----2-2---------------|
D|----4-4---------------|x2  |----------------------| (2x)
A|----------------------|    |----------------------|
E|----------------------|    |----------------------|

(1:02)
E|--9--9----------9-------9--9------9--9--9---------|
B|--10-9h10p9h10--9h10p9--10-9h10p9h10-10-10p9h10p9-|
G|--9--9----------9-------9--9------9--9--9---------|
D|--11-9h11p9h11--9h11p9--11-9h11p9h11-11-11p9h11p9-|
A|--9--9----------9-------9--9------9--9--9---------|
E|--------------------------------------------------|

(1:07)
E|--2-2--------2-2------2-2-2-2-2-------------------|
B|--3-2h3p2h3--3-2h3p2--3-2-3-3-3p2h3p2-------------|
G|--2-2--------2-2------2-2-2-2-2-------------------|
D|--4-2h4p2h4--4-2h4p2--4-2-4-4-4p2h4p2-------------|
A|--2-2--------2-2------2-2-2-2-2-------------------|
E|--------------------------------------------------|

(1:12)                       (1:22)
E|----2-2--5-3-2--------|    |--2--|
B|----2-2--------3-0----|    |--2--|
G|----2-2---------------|    |--2--|
D|----------------------|(4x)|-----|
A|----------------------|    |-----|
E|----------------------|    |-----|

(1:23)
E|------------------------------------------------------------------|
B|------------------------------------------------------------------|
G|------------------------------11-9-11--11-9-11--11-9-11--11-9-11--|
D|--4-2-4--4-2-4--4-2-4--4-2-4--------------------------------------|
A|------------------------------------------------------------------|
E|------------------------------------------------------------------|

(1:28)
E|--2--------4--------5\----------4-2--------4--------5\----------4-|
B|--2--------4--------5\----------4-2--------4--------5\----------4-|
G|--2--------4--------6\----------4-2--------4--------6\----------4-|
D|----4-2-4----4-2-4-----4-2-4-2------4-2-4----4-2-4-----4-2-4-2----| (2x)
A|------------------------------------------------------------------|
E|------------------------------------------------------------------|

(1:49)
E|----2---4---4---4--4---2---4---4---4--4----|
B|----2---4---5---4--4---2---4---5---4--4----|
G|----2---4---6---4--4---2---4---6---4--4----|
D|-------------------------------------------| (2x)
A|-------------------------------------------|
E|-------------------------------------------|

(2:10)
E|--2--------4--------5\----------4-2--------4--------5\----------4-|
B|--2--------4--------5\----------4-2--------4--------5\----------4-|
G|--2--------4--------6\----------4-2--------4--------6\----------4-|
D|----4-2-4----4-2-4-----4-2-4-2------4-2-4----4-2-4-----4-2-4-2----| (2x)
A|------------------------------------------------------------------|
E|------------------------------------------------------------------|

E|--2--|
B|--2--|
G|--2--|
D|-----|
A|-----|
E|-----|
00:00 / 00:00
Otros videos de esta canción
Repetir
Otros videos de esta canción
Compositor no encontrado.
Colaboración y revisión:
  • Jefferson Sousa
47 exhibiciones
    • ½ Tono
    • A
    • Bb
    • B
    • C
    • Db
    • D
    • Eb
    • E
    • F
    • F#
    • G
    • Ab
  • Agregar a la lista
    00:00 / 00:00
    OK