Cifra Club

Under The Bridge

Gym Class Heroes

Cifrado: Principal (guitarra y guitarra eléctrica)
tono: A
(intro) (Palm Mute ALL of the intro)
E|---------------------------------------------------------------------|
B|------------3-------------------------------------------------------2|
G|------2--------2-----------------------3-----------------------------|
D|---4-----4-----------------------4--------4--4-2------------4--------|
A|5-----------------4-2---------4-----4-------------5-2--4/5-------5---|
E|----------------------5-4--2-----------------------------------------|

E|-------------------------------------------------------------------|
B|-----3---------77--------------------------------------------------|
G|------------2--77------------------3-------------------------2-----|
D|---------------77------------4--------4--4-2-----------4--------4--|
A|--5------------55---------4-----4------------5-2--4/5-----5--------|
E|-----------------------2-------------------------------------------|

E|-------------------------------------------------------------------|
B|3---------------------------------------------------------3--------|
G|---2---------------------3--------------------------2------------2-|
D|-------------------4--------4--4-2------------4--------4-----------|
A|------4-2-------4-----4-------------5-2--4/5-----5-----------------|
E|-----------5-4-----------------------------------------------------|

E|------------------------------xxxx-------|
B|-77---------------------------xxxx-------|
G|-77---------------------------xxxx-------|
D|-77------------4--------------xxxx-------|
A|-55---------4-----4-----------xxxx-------|
E|---------2--------------------xxxx-------|

E|----------------------------------|
B|-----9----------------------------|
G|-----9------8-----11-11x11----6x6-|   (4x)
D|-----9------9-----11-11x11----7x7-|
A|-7----------9-----11-11x11----7x7-|
E|---------7-----9------9x-9----5x5-|

E|-----7--------|
B|-----9--------|
G|-----8--------|
D|-----9--------|
A|-----7--------|
E|-----7--------|
00:00 / 00:00
Otros videos de esta canción
Repetir
Otros videos de esta canción
Composición de Red Hot Chili Peppers
Colaboración y revisión:
  • Jefferson Sousa
84 exhibiciones
    • ½ Tono
    • A
    • Bb
    • B
    • C
    • Db
    • D
    • Eb
    • E
    • F
    • F#
    • G
    • Ab
  • Agregar a la lista
    00:00 / 00:00
    OK