Cifra Club

Fight The Force

H-Blockx

Cifrado: Principal (guitarra y guitarra eléctrica)
tono: C
H-Bloxx-Fight the force

That is a really cool song...but It's hard stuff...I don't no on which album it is...but 
an old song...I think 1994 or something like this....enjoy it

E|----------------x x-x---|
B|----------------x-x-x---|
G|-------3---2/3 -x-x-x-3-|
D|5-3h5----0-2/3- x-x-x-3-|
A|5---------------x-x-x-1-|
E|3---------------x-x-x---|

E|----------------------------|
B|----------------------------|
G|-------3--------------------|
D|5-3h5--0-------3------------|
A|5-----------4h5 -5-4-3------|
E|3-------------------------6-|

Strophe:
E|-----------------------------------------------------------------------|
B|-----------------------------------------------------------------------|
G|-------------2/3---(x-x-2----------------------------------------------|3)
D|-------------2/3---(x-x-2/3)      after 8 times they play the and (xx--|
A|-0-0-0h1---------------------------------------------------------------|
E|3----------3-----------------------------------------------------------|

Refrain:
E|-----------------------------------------------------------------------|
B|-----------------------------------------------------------------------|
G|-------------------2-----2h3p2----------- (2-2-2-----------------------| every second part you
D|2--------------2--2-------------5-2------ (2-2-2) play the ending (xx--|
A|2-----------------0------------------5-2--(0-0-0)----------------------|
E|0-0-0-0-3b5------------------------------------------------------------|


Sorry there is one more part...and I can't hear the last part
Compositor não encontrado.
13 vistas
    • ½ Tono
    • A
    • Bb
    • B
    • C
    • Db
    • D
    • Eb
    • E
    • F
    • F#
    • G
    • Ab
  • Agregar a la lista

    0 comentarios

    Ver todos los comentarios

    ¿Lograste tocar?

    0 Tocaron 0 Aún no

    ¡Graba un video tocando Fight The Force y envíanoslo!

    00:00 / 00:00
    Outros vídeos desta música
    Repetir Calidad Automático
    Outros vídeos desta música
    00:00 / 00:00
    Automático
    OK