Cifra Club

What Is Love?

Haddaway

Cifrado: Principal (guitarra y guitarra eléctrica)
Selo Cifra Club: esta cifra foi revisada para atender aos critérios oficiais da nossa Equipe de Qualidade.
tono: Gm
What is love?

[Riff 1]

   Gm                Bb
E|------------------------------------------|
B|------------------------------------------|
G|-3---3---3---3-----3---3---3---3----------|
D|---5---5---5---5-----3---3---3---3--------|
A|------------------------------------------|
E|------------------------------------------|

   Dm               F
E|------------------------------------------|
B|------------------------------------------|
G|-2---2---2---2----2---2---2---2-----------|
D|---3---3---3---3----3---3---3---3---------|
A|------------------------------------------|
E|------------------------------------------|

[Refrão]

Gm              Bb             Dm         F
   Baby, don`t hurt me, don`t hurt me no more
Gm              Bb             Dm         F
   Baby, don`t hurt me, don`t hurt me no more

( Gm  Bb  Dm  F )

[Riff 2]

   Gm        Bb         Dm        F
E|------------------------------------------|
B|-3-3-3-3-4-3-3-3-3-4--3-3-3-3-4-6-6-6-6-6-|
G|-3-3-3-3-3-3-3-3-3-3--2-2-2-2-2-5-5-5-5-5-|
D|-5-5-5-5-5-3-3-3-3-3--3-3-3-3-3-7-7-7-7-7-|
A|------------------------------------------|
E|------------------------------------------|

          Gm  Bb  Dm  F   
What is love?          yeah

Gm  Bb  Dm  F 
              Ooh

[Riff 1]

   Gm                Bb
E|------------------------------------------|
B|------------------------------------------|
G|-3---3---3---3-----3---3---3---3----------|
D|---5---5---5---5-----3---3---3---3--------|
A|------------------------------------------|
E|------------------------------------------|

   Dm               F
E|------------------------------------------|
B|------------------------------------------|
G|-2---2---2---2----2---2---2---2-----------|
D|---3---3---3---3----3---3---3---3---------|
A|------------------------------------------|
E|------------------------------------------|

[Primeira Parte]

Gm             Bb                  Dm
  Oh I don't know, why you're not fair
               F                   Gm
I give you my love, but you don't care
         Bb                  Dm            F
What is right, and what is wrong, gimme a sign

[Refrão]

         Gm                Bb             Dm         F
What is love? Baby, don`t hurt me, don`t hurt me no more
         Gm                Bb             Dm         F
What is love? Baby, don`t hurt me, don`t hurt me no more

Gm         Bb    Dm  F         
   Whoa, whoa, whoa, ooh, ooh
Gm         Bb    Dm  F         
   Whoa, whoa, whoa, ooh, ooh

( Gm  Bb  Dm  F )
( Gm  Bb  Dm  F )

[Segunda Parte]

Gm              Bb             Dm                  
   Oh I don't know what can I do
                 F               Gm
What else can I say, it's up to you
             Bb                Dm              F
I know we're one, just me and you, I can't go on

[Refrão]

         Gm                Bb             Dm         F
What is love? Baby, don`t hurt me, don`t hurt me no more
         Gm                Bb             Dm         F
What is love? Baby, don`t hurt me, don`t hurt me no more

Gm         Bb    Dm  F         
   Whoa, whoa, whoa, ooh, ooh
Gm         Bb    Dm  F         
   Whoa, whoa, whoa, ooh, ooh
         Gm  Bb  Dm  F
What is love?       
         Gm  Bb  Dm  F
What is love?

[Ponte]

         Gm                Bb             Dm         F
What is love? Baby, don`t hurt me, don`t hurt me no more

Gm 
   Don`t hurt me, don`t hurt me

Gm           Bb               Dm           
   I want no other, no other love
         F              Gm
This is your life, our time
               Bb                   Dm           
When we are together, I need you forever 
       F
Is it love?

[Refrão]

         Gm                Bb             Dm         F
What is love? Baby, don`t hurt me, don`t hurt me no more
         Gm                Bb             Dm         F
What is love? Baby, don`t hurt me, don`t hurt me no more
Gm              Bb             Dm         F
   Baby, don`t hurt me, don`t hurt me no more
Gm              Bb             Dm         F
   Baby, don`t hurt me, don`t hurt me no more
         Gm
What is love?
Otros videos de esta canción
    82.628 exhibiciones
      • ½ Tono
      • Am
      • Bbm
      • Bm
      • Cm
      • C#m
      • Dm
      • Ebm
      • Em
      • Fm
      • F#m
      • Gm
      • G#m
    • Agregar a la lista

    Afinación de cifrado

    Afinador online

      OK