Cifra Club

Familiar Taste Of Posion

Halestorm

Cifrado: Principal (guitarra y guitarra eléctrica)
tono: G
Intro / Verso:

E|-------------------------------------------------|
B|-------------------------------------------------|
G|-------4-------4----------4-------------4--------|  (2x)
D|----2--------------2----2------2------2----------|
A|----------------------3-------------2------------|
E|-0-------0--0----0-------------------------------|

E|---------------12---------|
B|----8----12---------------|
G|--------------------------|
D|--------------------------|
A|--------------------------|
E|--------------------------|

Drink the wine
My darling you said
Take your time
And consume all of it
Brought the roses
Only to drain my inspiration
The promises
Were spawn before they left your lips and

Refrão:
C         D        Em
I breathe you in again
Just to feel you
C         D        Em
Underneath my skin
Holding on to
C             D
The sweet escape
Em              D
Is always laced with a
C          D
Familiar taste of poison

Intro:

Verso:
I tell my self
That you're no good for me
I wish you will
But desire never leaves
I could fight this til the end
But maybe i don't wanna win

Refrão:
C         D        Em
I breathe you in again
Just to feel you
C         D        Em
Underneath my skin
Holding on to
C             D
The sweet escape
Em               D
Is always laced with a
C
Familiar taste of poison

Em
I don't wanna be saved
G
I don't wanna be sober
D
I want you on my mind
Em
In my dreams
G
Behind these eyes
   C
And i won't wake up
   B7
No not this time

C               D     Em
I breathe you in again
       G
Just to feel you
C       D     Em
Underneath my skin
         G
Holding on to
C           D
The sweet escape
Em                 C
Is always laced with a
C        D        Em  G
Familiar taste of poison
C        D          Em  G
A familiar taste of poison
C        D                 Em
A familiar taste of poison
E|----------------------------------------|
B|----------------------------------------|
G|------4----------4-------------4--------|
D|-----------2----2------2------2---------|
A|----------------------3-------------2---|
E|-0--0---0-------------------------------|
00:00 / 00:00
Otros videos de esta canción
Repetir
Otros videos de esta canción
Compositor no encontrado.
Colaboración y revisión:
  • Lucas Monteiro
  • Anna Gabriella
445 vistas
    • ½ Tono
    • A
    • Bb
    • B
    • C
    • Db
    • D
    • Eb
    • E
    • F
    • F#
    • G
    • Ab
  • Agregar a la lista

    0 comentarios

    Ver todos los comentarios

    ¿Lograste tocar?

    4 Tocaron 1 Aún no

    ¡Graba un video tocando Familiar Taste Of Posion y envíanoslo!

    00:00 / 00:00
    OK