Cifra Club

Here's To Us

Halestorm

Cifrado: Principal (guitarra y guitarra eléctrica)
tono: C
Riff (introdução)  Repete 6X

        C                   F                           Am                          G
E|-----------------------------------------------------------------------------------3-------------
B|-------------1-----1------------------1-------1---------------1--------1--------3-----3------1---
G|----------------0-----------------2-------2---------------2--------2-----------------------------
D|---------2---------------------3----------------------2------------------------------------------
A|-----3-------------------------------------------------------------------------------------------
E|--------------------------------------------------------------------------------3----------------


We could just go home right now
Or maybe we could stick around
For just one more drink, oh yeah
Get another bottle out
Lets shoot the shit
Sit back dow
For just one more drink, oh yeah

 C                      G
Here's to us , Here's to love
Am                          F
All the times That we fucked up
Riff 1 (solo )

E|-------------------------------
B|-------------------------------
G|-------------------------------
D|-------------------------------
A|-------------3-----5-----------
E|---3----5----------------------

C                        G
Here's to us ,fill the glass
Am                           F
Cause the last few days, have kicked my ass

Riff 2 (solo)

E|----------------------------------
B|----------------------------------
G|----------------------------------
D|-----3------2---------------------
A|------------------3-----0---------
E|----------------------------------

C                G
So lets give em hell
Am               F
Wish everybody well
C                    G
Here's to us
Am                F
Here's to us

Riff (introdução)  Repete 4X

Stuck it out this far together
Put our dreams through the shredder
Let's toast cause things got better
And everything could change like that
And all these years go by so fast
But nothing lasts forever

C                      G
Here's to us ,here's to love
      Am                 F
All the times That we fucked up

Riff 1 (solo )

C                        G
Here's to us ,fill the glass
Am                                        F
Cause the last few days, have kicked my ass

Riff 2 (solo)

   C              G
If they give you hell
Am                          F
Tell em to fuck themselves
    C      G
Here's to us
    Am      F
Here's to us



    D
Here's to all that  we kissed
F
And to all that we missed
          C
To the biggest mistakes
         G
That we just wouldn't trade
  F
To us breaking up
Without us breaking down
G
To whatever's come our way

          C             G
Here's to us here's to love
        Am           F
All the times that we fucked up

Riff 1(solo)
          C               G
Here's to you  fill the glass
           Am                  F
Cause the last few days have kicked my ass

Riff 2 (solo)
    C            G
So let's give em hell
Am             F
Wish everybody will

          C              G
Here's to us, here's to love
        Am              F
All the times   that we fucked up
Riff 1(solo)

          C                 G
Here's to you,fill the glass
           Am
Cause the last few nights
      F
Have kicked my ass
Riff 2 (solo)

   C             G
If they give you hell
       Am             F
Tell em to fuck themselves

(fuck themselves)
          C             G
Here's to us   here's to us
          Am        F
Here's to us  here's to us


         C                G             Am   F
Here's to us, here's to love, Here's to us

         C                G             Am   F
Here's to us, here's to love, Here's to us

         C
Here's to us
00:00 / 00:00
Otros videos de esta canción
Repetir
Otros videos de esta canción
Composición de Danielle Brisebois
Colaboración y revisión:
  • Carlos Romão
  • Jaine Godoy
  • Vítor Martinez
1.020 vistas
    • ½ Tono
    • A
    • Bb
    • B
    • C
    • Db
    • D
    • Eb
    • E
    • F
    • F#
    • G
    • Ab
  • Agregar a la lista

    0 comentarios

    Ver todos los comentarios
    00:00 / 00:00
    OK