Cifra Club

Love Bites

Halestorm

Cifrado: Principal (guitarra y guitarra eléctrica)
tono: C
E|------------------------------------------------------------------------|
B|------------------------------------------------------------------------|
G|------------------------------------------------------------------------|
D|-----------------3/10\-0------3------5------6--5-0------3------5------6-|
A|-----------------3/10\-0------3------5------6--5-0------3------5------6-|
D|-----------------3/10\-0-0000-3-0000-5-0000-6--5-0-0000-3-0000-5-0000-6-|
                         
E|------------------------------------------------------------------------|
B|------------------------------------------------------------------------|
G|------------------------------------------------------------------------|
D|-5-0------3------5------6--5-0------3------5------6--5-0------3------5--|
A|-5-0------3------5------6--5-0------3------5------6--5-0------3------5--|
D|-5-0-0000-3-0000-5-0000-6--5-0-0000-3-0000-5-0000-6--5-0-0000-3-0000-5-0|
      
E|------------------------------------------------------------------------|
B|------------------------------------------------------------------------|
G|------------------------------------------------------------------------|
D|----6--5-0------3------5------6--5-0------3------5------6--5-0------3---|
A|----6--5-0------3------5------6--5-0------3------5------6--5-0------3---|
D|000-6--5-0-0000-3-0000-5-0000-6--5-0-0000-3-0000-5-0000-6--5-0-0000-3-00|

E|-------------------------------------------------------------------------|
B|-------------------------------------------------------------------------|
G|-------------------------------------------------------------------------|
D|---5------6--5-3---------------------------------------------------------|
A|---5------6--5-3---------------------------------------------------------|
D|00-5-0000-6--5-3---------------------------------------------------------|

Verso:
E|-------------------------------------------------------------------------|
B|-------------------------------------------------------------------------|
G|-------------------------------------------------------------------------|
D|-----------------------------------888888888888888-7-88888888888-7-------|  2x
A|-----------------------------------888888888888888-7-88888888888-7-------|
D|5-000-000-000-00/5-000-000-000-00-888888888888888-7-88888888888-7--------| 

Pré-refrão:
E|-------------------------------------------------------------------------|
B|-------------------------------------------------------------------------|
G|-------------------------------------------------------------------------|
D|-------------------------------------------------------------------------|
A|-----333-1111111111-00000000000------------------------------------------|
D|-333----------------------------5555555555-- 6530653065306530------------|

Refrão:
E|-------------------------------------------------------------------------|
B|-------------------------------------------------------------------------|
G|-------------------------------------------------------------------------|
D|----------------------------------3p0---3p0------------------------------|  2x
A|----------11111111-----------3333----3p0---3p0---------------------------|
D|0000-3333----------0000-3333---------------------------------------------| 

( Bb  A  G  Ab  Ab  Ab  Ab  G  F  D ) 
00:00 / 00:00
Otros videos de esta canción
Repetir
Otros videos de esta canción
Composición de David Bassett
Colaboración y revisión:
  • Lucas Anselmo
  • Alphonsus Tolosa
493 vistas
    • ½ Tono
    • A
    • Bb
    • B
    • C
    • Db
    • D
    • Eb
    • E
    • F
    • F#
    • G
    • Ab
  • Agregar a la lista

    0 comentarios

    Ver todos los comentarios
    00:00 / 00:00
    OK