Cifra Club

Bad At Love

Halsey

Cifrado: Principal (guitarra y guitarra eléctrica)
Acompaña nuestras novedades de Cifra Club en español.
¡Sigue nuestro perfil en Instagram!
tono: Am
Am
Ohh

      F                     Am
Got a boy back home in Michigan
       G
And it tastes like Jack when I'm kissing him
     F                                      Am
So I told him that I never really liked his friends
         G                          C
Now he's gone and he's calling me a bitch again
       F                           Am
It's a guy that lives in a garden state
       G
And he told me that we'd make it 'til we graduate
     F                                      Am
So I told him the music would be worth the wait
       G                              C
But he wants me in the kitchen with a dinner plate

    F                                 Am
I believe, I believe, I believe, I believe
           G
That we're meant to be
          F                             Am
But jealousy, jealousy, jealousy, jealousy
         G          C
Gets the best of me
      F                          Am
Look, I don't mean to frustrate, but I
G
Always make the same mistakes, yeah
F                              Am   G  C
Always make the same mistakes 'cause

      F           Am   G                Fm          Am   G       C
E|----------------|----------------|----------------|----------------|
B|1--------------1|--3-------------|--1------------1|--3-------5-----|
G|2--------------2|--4-------------|--2------------2|--4-------5-----|
D|3--------------2|--5-------------|--3------------3|--5-------5-----|
A|----------------|----------------|----------------|----------------|
E|----------------|----------------|----------------|----------------|

           F    Am  G
I'm bad at love (ooh-ooh)
                           F
But you can't blame me for tryin'
         Am     G
You know I'd be lyin' sayin'
C            F    Am  G
You were the one (ooh-ooh)
                   F
That could finally fix me
        Am    G
Lookin' at my history
    C      F
I'm bad at love

      F
Got a girl with California eyes
Am     G
 And I thought that she could really be the one this time
      F                                  Am
But I never got the chance to make her mine
            G                        C
Because she fell in love with little thin white lines
F                         Am
London girl with an attitude
         G
We never told no one but we look so cute
F                              Am
Both got way better things to do
      G                              C
But I always think about it when I'm riding through

    F                                 Am
I believe, I believe, I believe, I believe
           G
That I'm in too deep
          F                             Am
But jealousy, jealousy, jealousy, jealousy
         G          C
Gets the best of me
      F                          Am
Look, I don't mean to frustrate, but I
G
Always make the same mistakes, yeah
F                              Am   G6  C
Always make the same mistakes 'cause

           F     Am  G
I'm bad at love (ooh-ooh)
                           F
But you can't blame me for tryin'
         Am     G
You know I'd be lyin' sayin'
C            F    Am  G
You were the one (ooh-ooh)
                   F
That could finally fix me
        Am    G
Lookin' at my history
    C      F     Am  G
I'm bad at love (ooh-ooh)
         F               Am G
Oh, you know, you know, you know
    C      F     Am  G
I'm bad at love (ooh-ooh)
           F     Am  G    C
I'm bad at love (ooh-ooh)

E|------------------------|
B|13----12----------------|
G|---12----12-14-12----12-|
D|------------------14----| x16
A|------------------------|
E|------------------------|

[Ponte]

E|------17----20---------------------------------17-----20----------------------------17----20----|
B|20---------------------------------------17--------------------------17-18----20----------------|
G|---------------------------------16-17----------------------------19----------------------------|
D|------------------------------19----------------------------------------------------------------|
A|------------------------------------------------------------------------------------------------|
E|------------------------------------------------------------------------------------------------|

F                     Am    G
  I know that you're afraid
                    F
I'm gonna walk away
                      Am    G
Each time the feeling fades
              C             F
Each time the feeling fades
                    Am    G
I know that you're afraid
                    F
I'm gonna walk away
                      Am    G
Each time the feeling fades

           F     Am  G
I'm bad at love (ooh-ooh)
                           F
But you can't blame me for tryin'
         Am     G
You know I'd be lyin' sayin'
C            F    Am  G
You were the one (ooh-ooh)
                   F
That could finally fix me
        Am    G
Lookin' at my history
    C      F     Am  G
I'm bad at love (ooh-ooh)
         F               Am G
Oh, you know, you know, you know
    C      F     Am  G
I'm bad at love (ooh-ooh)
           F     Am  G    C
I'm bad at love (ooh-ooh)
F  Am G
Oh,   oh
Composición de Eric Frederic / Halsey / Justin Tranter / Rogét Chahayed
Colaboración y revisión:
  • Alline Mel
  • Tiago Campos
  • Veridiana Costa
496 vistas
    • ½ Tono
    • Am
    • Bbm
    • Bm
    • Cm
    • C#m
    • Dm
    • Ebm
    • Em
    • Fm
    • F#m
    • Gm
    • G#m
  • Agregar a la lista

    0 comentarios

    Ver todos los comentarios

    ¿Lograste tocar?

    7 Tocaron 2 Aún no

    ¡Graba un video tocando Bad At Love y envíanoslo!

    00:00 / 00:00
    Outros vídeos desta música
    Repetir Calidad Automático
    Outros vídeos desta música
    00:00 / 00:00
    Automático
    OK