Cifra Club

J.F.

Hamlet

Cifrado: Principal (guitarra y guitarra eléctrica)
tono: Ebm
E|------------------------------------------------------------|
B|------------------------------------------------------------|

AFINACION

Afinación en C (C,F,Bb,Eb,G,C): afina todas las cuerdas de
la guitarra cuatro semitonos menos

E|------------------------------------------------------------|
B|------------------------------------------------------------|


INTRO

1)

E|-------------------|
B|-------------------|
G|-----------9-8-7| >--
D|-----------9-8-7| >--
A|-----------7-6-5| >--
E|--0-0-0-0----------|
  PM.....

2)

E|----------------------------------|
B|----------------------------------|
G|-----------9-8-7------------------|
D|-----------9-8-7-----------8-7-5--|
A|-----------7-6-5-----------8-7-5--|
E|--0-0-0-0---------0-0-0-0--6-5-3--|
  PM.....         PM.....

3)

E|--------------------------------------|
B|--------------------------------------|
G|--------------------------------------|
D|--7-6-5-5-----------------------------|
A|-----------6-5-4-3--7-6-5-5-----------|
E|-----------------------------6-5-3-3--|
  PM................................


VERSO (Hey, tú, jodido vago...)

1)

                 xxxxxxxxxxxxxxxxxxx
E|----------------| ¡------------------¡--
B|----------------| ¡------------------¡--
G|----------------| ¡----------------3-¡--
D|--2---3-3-3--2--| ¡-2-2--2-2--2-2--3-¡--
A|--2---3-3-3--2--| ¡-2-2--2-2--2-2--1-¡--
E|--0*--1-1-1--0*-| ¡-0-0--0-0--0-0----¡--
                  PM...........

La segunda vez que toques este riff en vez de tocar lo que
pone en la zona marcada con 'x' toca esto:

E|-----------|
B|-----------|
G|-----------|
D|--2s5--5---|
A|--2s5--5---|
E|--0s3--3*--|


2) (Me has estado utilizando...)

E|--------------------------------|
B|--------------------------------|
G|--------------6--7-7-7--8--7-7--|
D|--4-3-2-------6--7-7-7--8--7-7--|
A|--4-3-2-------4--5-5-5--6--5-5--|
E|--2-1-0--0-0--------------------|
         PM.


CHORUS

1) (Y no dejas de ser...)

Guitarra 1: Tocar lo mismo que en Intro 3

Guitarra 2
E|----------------------|
B|----------------------|
G|----------------------|
--2>---5>---7>---10>--
--2>---5>---7>---10>--
--0>---3>---5>---8>---


2) (Facha!)

                 xxxxxxxxxx
E|----------------| ¡----------¡--
B|----------------| ¡----------¡--
G|----------------| ¡----------¡--
D|--2-2--2-2--2-2-| ¡-3-3--3-3-¡--
A|--2-2--2-2--2-2-| ¡-3-3--3-3-¡--
E|--0-0--0-0--0-0-| ¡-1-1--1-3-¡--

La segunda vez que toques este riff en vez de tocar lo que
pone en la zona marcada con 'x' toca esto:

E|-----|
B|-----|
G|-----|
D|--3--|
A|--3--|
E|--1--|

Y la cuarta vez esto:

E|----------------------|
B|----------------------|
G|----------------------|
--2s5--5-5--5-5--5-5--
--2s5--5-5--5-5--5-5--
--0s3--3-3--3-3--3-3--


POST-CHORUS
              (x3)
E|------------------| ¡---------------
B|------------------| ¡---------------
G|----------5-----3-| ¡-7-7--7-7--8---
D|--2-------5-----3-| ¡-7-7--7-7--8---
A|--2-------3-----1-| ¡-5-5--5-5--6*--
E|--0--3b| >-----0----¡---------------
             PM


FINAL

E|------|
B|------|
G|------|
--2>--
--2>--
--0>--
00:00 / 00:00
Otros videos de esta canción
Repetir
Otros videos de esta canción
Composición de Molly/tarraga
2 vistas
    • ½ Tono
    • Am
    • Bbm
    • Bm
    • Cm
    • C#m
    • Dm
    • Ebm
    • Em
    • Fm
    • F#m
    • Gm
    • G#m
  • Agregar a la lista

    0 comentarios

    Ver todos los comentarios

    ¿Lograste tocar?

    0 Tocaron 0 Aún no

    ¡Graba un video tocando J.F. y envíanoslo!

    00:00 / 00:00
    OK