Cifra Club

Legalizar

Hamlet

Cifrado: Principal (guitarra y guitarra eléctrica)
tono: Gm
E|E|E|E|E|-----||||E|E|E|E|-----||||E|E|E|E|-----||||E|E|E|E|-----||||E|E|E|E|-----||||E|E|E|E|-----||||E|E|E|E|-----||||E|E|E|E|-----||||E|E|E|E|-----||||E|E|E|E|-----||||E|E|E|E|-----||||E|E|E|E|-----|||||
B|E|E|E|E|-----||||E|E|E|E|-----||||E|E|E|E|-----||||E|E|E|E|-----||||E|E|E|E|-----||||E|E|E|E|-----||||E|E|E|E|-----||||E|E|E|E|-----||||E|E|E|E|-----||||E|E|E|E|-----||||E|E|E|E|-----||||E|E|E|E|-----|||||

AFINACION

Afinación en C (C,F,Bb,Eb,G,C): afina todas las cuerdas de
la guitarra cuatro semitonos menos

E|E|E|E|E|-----||||E|E|E|E|-----||||E|E|E|E|-----||||E|E|E|E|-----||||E|E|E|E|-----||||E|E|E|E|-----||||E|E|E|E|-----||||E|E|E|E|-----||||E|E|E|E|-----||||E|E|E|E|-----||||E|E|E|E|-----||||E|E|E|E|-----|||||
B|E|E|E|E|-----||||E|E|E|E|-----||||E|E|E|E|-----||||E|E|E|E|-----||||E|E|E|E|-----||||E|E|E|E|-----||||E|E|E|E|-----||||E|E|E|E|-----||||E|E|E|E|-----||||E|E|E|E|-----||||E|E|E|E|-----||||E|E|E|E|-----|||||

E|E|E|E|-----||||
INTRO (x3)
E|E|E|E|-----||||

E|E|E|E|-----||||E|E|E|E|-----||||E|E|E|E|-----||||E|E|E|E|-----||||E|E|E|E|-----||||E|E|E|E|-----||||E|E|E|E|-----||||E|E|E|E|-----||||E|E|E|E|-----||||-
E|E|E|E|-----||||E|E|E|E|-----||||E|E|E|E|-----||||E|E|E|E|-----||||E|E|E|E|-----||||E|E|E|E|-----||||E|E|E|E|-----||||E|E|E|E|-----||||E|E|E|E|-----||||-
E|E|E|E|-----||||E|E|E|E|-----||||E|E|E|E|-----||||E|E|E|E|-----||||E|E|E|E|-----||||-10--10--9--9--8--8--
--7--7--7--7--7--7--7--7--10--10--9--9--8--8--
--7--7--7--7--7--7--7--7---8---8--7--7--6--6--
--5--5--5--5--5--5--5--5---8---8--7--7--6--6--

E|E|E|E|-----||||E|E|E|E|-----||||E|E|E|E|-----||||E|E|E|E|-----||||E|E|E|E|-----||||E|E|E|E|-----||||E|E|E|E|-----||||E|E|E|E|-----||||E|E|E|E|-----||||-
E|E|E|E|-----||||E|E|E|E|-----||||E|E|E|E|-----||||E|E|E|E|-----||||E|E|E|E|-----||||E|E|E|E|-----||||E|E|E|E|-----||||E|E|E|E|-----||||E|E|E|E|-----||||-
E|E|E|E|-----||||E|E|E|E|-----||||E|E|E|E|-----||||E|E|E|E|-----||||E|E|E|E|-----||||E|E|E|E|-----||||E|E|E|E|-----||||E|E|E|E|-----||||E|E|E|E|-----||||-
--7--7--7--7--7--7--7--7--10--10--9--9--8--8--
--7--7--7--7--7--7--7--7--10--10--9--9--8--8--
--5--5--5--5--5--5--5--5---8---8--7--7--6--6--

E|E|E|E|-----||||E|E|E|E|-----||||E|E|E|E|-----||||E|E|E|E|-----||||E|E|E|E|-----||||E|E|E|E|-----||||E|E|E|E|-----||||E|E|E|E|-----||||E|E|E|E|-----||||-
E|E|E|E|-----||||E|E|E|E|-----||||E|E|E|E|-----||||E|E|E|E|-----||||E|E|E|E|-----||||E|E|E|E|-----||||E|E|E|E|-----||||E|E|E|E|-----||||E|E|E|E|-----||||-
E|E|E|E|-----||||E|E|E|E|-----||||E|E|E|E|-----||||E|E|E|E|-----||||E|E|E|E|-----||||-10--10--9--9--8--8--
--7--7--7--7--7--7--7--7--10--10--9--9--8--8--
--7--7--7--7--7--7--7--7---8---8--7--7--6--6--
--5--5--5--5--5--5--5--5---8---8--7--7--6--6--

E|E|E|E|-----||||E|E|E|E|-----||||E|E|E|E|-----||||E|E|E|E|-----||||E|E|E|E|-----||||E|E|E|E|-----||||E|E|E|E|-----||||E|E|E|E|-----||||E|E|E|E|-----||||E|E|E|E|-----||||
E|E|E|E|-----||||E|E|E|E|-----||||E|E|E|E|-----||||E|E|E|E|-----||||E|E|E|E|-----||||E|E|E|E|-----||||E|E|E|E|-----||||E|E|E|E|-----||||E|E|E|E|-----||||E|E|E|E|-----||||
--7--7--7--7--7--7--7--7--8--8--8--8--8--8--8--8--
--7--7--7--7--7--7--7--7--8--8--8--8--8--8--8--8--
--5--5--5--5--5--5--5--5--6--6--6--6--6--6--6--6--
--5--5--5--5--5--5--5--5--6--6--6--6--6--6--6--6--

E|E|E|E|-----||||
VERSO (Como voy a dejar de lado está ocasión...) (x2)
E|E|E|E|-----||||

E|E|E|E|-----||||E|E|E|E|-----||||E|E|E|E|-----||||E|E|E|E|-----||||E|E|E|E|-----||||E|E|E|E|-----||||E|E|E|E|-----||||E|E|E|E|-----||||----
E|E|E|E|-----||||E|E|E|E|-----||||E|E|E|E|-----||||E|E|E|E|-----||||E|E|E|E|-----||||E|E|E|E|-----||||E|E|E|E|-----||||E|E|E|E|-----||||----
E|E|E|E|-----||||E|E|E|E|-----||||E|E|E|E|-----||||E|E|E|E|-----||||7--7--7--7--7--7--7--7-- (x3)
--7--7--5--5--7--7--7--7--7--7--7--7--7--7--
--7--7--5--5--7--7--5--5--5--5--5--5--5--5--
--5--5--3--3--5--5--5--5--5--5--5--5--5--5--

E|E|E|E|-----||||E|E|E|E|-----||||E|E|E|E|-----||||E|E|E|E|-----||||E|E|E|E|-----||||E|E|E|E|-----||||E|E|E|E|-----||||E|E|E|E|-----||||E|E|E|E|-----||||E|E|E|E|-----||||
E|E|E|E|-----||||E|E|E|E|-----||||E|E|E|E|-----||||E|E|E|E|-----||||E|E|E|E|-----||||E|E|E|E|-----||||E|E|E|E|-----||||E|E|E|E|-----||||E|E|E|E|-----||||E|E|E|E|-----||||
--8--8--8--8--8--8--8--8--8--8--8--8--8--8--8--8--
--8--8--8--8--8--8--8--8--8--8--8--8--8--8--8--8--
--6--6--6--6--6--6--6--6--6--6--6--6--6--6--6--6--
--6--6--6--6--6--6--6--6--6--6--6--6--6--6--6--6--

E|E|E|E|-----||||-
CHORUS (Legalizar, legalizar,...)
E|E|E|E|-----||||-


Tocar lo mismo que en Intro


E|E|E|E|-----||||E|E|E|E|-----||||-
POST-CHORUS
E|E|E|E|-----||||E|E|E|E|-----||||-


1)


E|E|E|E|-----||||-
E|E|E|E|-----||||-
E|E|E|E|-----||||-
--7>--
--7>--
--5>--

E|E|E|E|-----||||E|E|E|E|-----||||E|E|E|E|-----||||--0>--
E|E|E|E|-----||||E|E|E|E|-----||||E|E|E|E|-----||||--0>--
E|E|E|E|-----||||E|E|E|E|-----||||E|E|E|E|-----||||E|E|E|E|-----||||-
--8--7--8--8--8--7>--
--6--5--6--6--6--7>--
E|E|E|E|-----||||E|E|E|E|-----||||E|E|E|E|-----||||--5>--
  PM...........

E|E|E|E|-----||||E|E|E|E|-----||||E|E|E|E|-----||||E|E|E|E|-----||||E|E|E|E|-----||||E|E|E|E|-----||||E|E|E|E|-----||||E|E|E|E|-----||||E|E|E|E|-----||||E|E|E|E|-----||||
E|E|E|E|-----||||E|E|E|E|-----||||E|E|E|E|-----||||E|E|E|E|-----||||E|E|E|E|-----||||E|E|E|E|-----||||E|E|E|E|-----||||E|E|E|E|-----||||E|E|E|E|-----||||E|E|E|E|-----||||
--7--7--7--7--7--7--7--7--8--8--8--8--8--8--8--8--
--7--7--7--7--7--7--7--7--8--8--8--8--8--8--8--8--
--5--5--5--5--5--5--5--5--6--6--6--6--6--6--6--6--
--5--5--5--5--5--5--5--5--6--6--6--6--6--6--6--6--


2)


E|E|E|E|-----||||E|E|E|E|-----||||E|E|E|E|-----||||E|E|E|E|-----||||E|E|E|E|-----||||E|E|E|E|-----||||E|E|E|E|-----||||E|E|E|E|-----||||E|E|E|E|-----||||E|E|E|E|-----||||--
E|E|E|E|-----||||E|E|E|E|-----||||E|E|E|E|-----||||E|E|E|E|-----||||E|E|E|E|-----||||E|E|E|E|-----||||E|E|E|E|-----||||E|E|E|E|-----||||E|E|E|E|-----||||E|E|E|E|-----||||--
E|E|E|E|-----||||-10--9--8E|E|E|E|-----||||E|E|E|E|-----||||E|E|E|E|-----||||E|E|E|E|-----||||10--9--8--7>--8>--
--7>--10--9--8--7>--10--9--8--7>--10--9--8--7>--8>--
--7>---8--7--6--7>--10--9--8--7>---8--7--6--5>--6>--
--5>---8--7--6--5>---8--7--6--5>---8--7--6--5>--6>--

E|E|E|E|-----||||E|E|E|E|-----||||E|E|E|E|-----||||E|E|E|E|-----||||E|E|E|E|-----||||E|E|E|E|-----||||E|E|E|E|-----||||E|E|E|E|-----||||----
E|E|E|E|-----||||E|E|E|E|-----||||E|E|E|E|-----||||E|E|E|E|-----||||E|E|E|E|-----||||E|E|E|E|-----||||E|E|E|E|-----||||E|E|E|E|-----||||----
E|E|E|E|-----||||-10--9--8E|E|E|E|-----||||E|E|E|E|-----||||E|E|E|E|-----||||E|E|E|E|-----||||10--9--8--
--7>--10--9--8--7>--10--9--8--7>--10--9--8--
--7>---8--7--6--7>--10--9--8--7>---8--7--6--
--5>---8--7--6--5>---8--7--6--5>---8--7--6--

E|E|E|E|-----||||E|E|E|E|-----||||E|E|E|E|-----||||E|E|E|E|-----||||E|E|E|E|-----||||E|E|E|E|-----||||E|E|E|E|-----||||E|E|E|E|-----||||E|E|E|E|-----||||E|E|E|E|-----||||
E|E|E|E|-----||||E|E|E|E|-----||||E|E|E|E|-----||||E|E|E|E|-----||||E|E|E|E|-----||||E|E|E|E|-----||||E|E|E|E|-----||||E|E|E|E|-----||||E|E|E|E|-----||||E|E|E|E|-----||||
--7--7--7--7--7--7--7--7--8--8--8--8--8--8--8--8--
--7--7--7--7--7--7--7--7--8--8--8--8--8--8--8--8--
--5--5--5--5--5--5--5--5--6--6--6--6--6--6--6--6--
--5--5--5--5--5--5--5--5--6--6--6--6--6--6--6--6--

E|E|E|E|E|-----||||E|E|E|E|-----||||E|E|E|E|-----||||E|E|E|E|-----||||E|E|E|E|-----||||E|E|E|E|-----||||E|E|E|E|-----||||E|E|E|E|-----||||E|E|E|E|-----||||E|E|E|E|-----||||E|E|E|E|-----||||E|E|E|E|-----|||||
B|E|E|E|E|-----||||E|E|E|E|-----||||E|E|E|E|-----||||E|E|E|E|-----||||E|E|E|E|-----||||E|E|E|E|-----||||E|E|E|E|-----||||E|E|E|E|-----||||E|E|E|E|-----||||E|E|E|E|-----||||E|E|E|E|-----||||E|E|E|E|-----|||||
00:00 / 00:00
Otros videos de esta canción
Repetir
Otros videos de esta canción
Composición de Molly/tarraga
    • ½ Tono
    • Am
    • Bbm
    • Bm
    • Cm
    • C#m
    • Dm
    • Ebm
    • Em
    • Fm
    • F#m
    • Gm
    • G#m
  • Agregar a la lista

    0 comentarios

    Ver todos los comentarios

    ¿Lograste tocar?

    0 Tocaron 0 Aún no

    ¡Graba un video tocando Legalizar y envíanoslo!

    00:00 / 00:00
    OK