Cifra Club

Perdón por vivir

Hamlet

Cifrado: Principal (guitarra y guitarra eléctrica)
Acompaña nuestras novedades de Cifra Club en español.
¡Sigue nuestro perfil en Instagram!
tono: Bm
INTRO:

E|--------------------------|
B|--------------------------|
G|--------------------------|
D|-----4-----4-----4----4---|
A|---4-----4-----4----4---4-|
E|-0-----5-----2-----3------|

E|------------------|
B|------------------|
G|------------------|
D|------------------|
A|-2---7---4--4/5-5-|
E|-0---5---2--2/3-3-| (yo prefiero deslizar)

RIFF 1

E|---------------------------------------|
B|---------------------------------------|
G|---------------------------------------|
D|---------------------------------------|
A|-----8-7-----9/10-----9/10---------8-7-|
E|-0-0-6-5-0-0-7/8--0-0-7/8--0-0-0-0-6-5-|
   ___     ___      ___      _______
   PM      PM       PM       PM

RIFF 2
E|---------------------|
B|---------------------|
G|---------------------|
D|---------------------|
A|-8-7-6------8-7-6--9-|
E|-6-5-4------6-5-4--7-|
       ¡sufre!        rogar a dios...

RIFF 3
Luego raea un poco y se oye esto:

E|-------------------------------|
B|-------------------------------|
G|-------------------------------|
D|-------------------------------|
A|-22--22--22------8-----8-22-22-|
E|-00--00--00--0-0-6-0-0-6-00-00-|
               ___   ___
               PM    PM

E|----------------------------------------|
B|----------------------------------------|
G|----------------------------------------|
D|----------------------------------------|
A|-6-7-8-9--22222-22222-22222-----8-----8-|
E|-4-5-6-7--00000-00000-00000-0-0-6-0-0-6-|
E|---------------------| ---
            PM                      PM

PERC N POR VIVIR
Nací, Quién Iba A Decir Que De Nacer
Me Iba Arrpentir
Creci, Nada Me Falto Y No Comprendi
Que Vida Era Peor,
Madre Nadie Me Empujo, Madre Todo Lo Hice Yo,
Madre, No Te Quise Oir, Madre No Llores Por Mi
Sufre, Rogar A Dios Un Sito Para Mi,
Miedo Solo A Vivir Nunca A Morir
Cambie Suerte Por Dolor,
Desconfié De Quien Me Trato Mejor
Perdí Mi Personalidad Y Traicioné
A Quien Intento Ayudar
Padre, Me Falto Valor, Padre Ese No Era Yo,
Padre Aconsejame, Padre Lo Conseguire
Miente, Un Juego Simple Habia Que Seguir
Roba, Para Subir Luega Caer
Me Sobra Tiempo Para Pensar,
Y No Tengo Suelo Firme
E Donde Pisar
Qué Soy Yo Qué Eres Tu,
Mírame A La Cara Y Lo Veras
No Se Como Acabaré, Tal Vez Hoy Pueda Salir
Nadie A Mi Lado Esta,
Me He Condenadoa Muerte
Sufre, Rogar A Dios Un Sitio Para Mí,
Miente Un Juego Simple Habia Que Seguir
Roba, Para Subir, Luego Caer
Perdon Por Vivir,
Perdon Por Vivir,
Perdon Por Vivir,
Perdon Por Vivir.
Compositor não encontrado.
    • ½ Tono
    • Am
    • Bbm
    • Bm
    • Cm
    • C#m
    • Dm
    • Ebm
    • Em
    • Fm
    • F#m
    • Gm
    • G#m
  • Agregar a la lista

    0 comentarios

    Ver todos los comentarios

    ¿Lograste tocar?

    0 Tocaron 0 Aún no

    ¡Graba un video tocando Perdón por vivir y envíanoslo!

    00:00 / 00:00
    Outros vídeos desta música
    Repetir Calidad Automático
    Outros vídeos desta música
    00:00 / 00:00
    Automático
    OK