Cifra Club

Always will be

HammerFall

Cifrado: Principal (guitarra y guitarra eléctrica)
Acompaña nuestras novedades de Cifra Club en español.
¡Sigue nuestro perfil en Instagram!
tono: B (con acordes en la forma de C) Afinación: Eb Ab Db Gb Bb Eb
Intro: Dm C Am Dm F C
E|------------------------------------------------------------------------------------------|
B|------------------------------------------------------------------------------------------|
G|-13--13-13--11-11-13-13-9-9-11-11-9/11-9-8--8/9/8----------------8-9----8-9-11--8-9-11-13-|
D|--------------------------------------------------11-9-11---9-11-----11-------------------|
A|------------------------------------------------------------------------------------------|
E|------------------------------------------------------------------------------------------|

E|------------------------------------------------------------------------------------------|
B|---------------------------14----16----17----16----14----16--14-12-12---12-14-16--17------|
G|-9-11-13--13/14/13-11---13----13----13----13----13----13----------------------------------|
D|------------------------------------------------------------------------------------------|
A|------------------------------------------------------------------------------------------|
E|------------------------------------------------------------------------------------------|

E|-------------------------------------11----11-13--11-13-14--13--14-13-11------------------|
B|-12-14-17--12-14-17-16-14--14-12-14-----14------------------------------------------------|
G|------------------------------------------------------------------------------------------|
D|------------------------------------------------------------------------------------------|
A|------------------------------------------------------------------------------------------|
E|------------------------------------------------------------------------------------------|

Dm                          C
 Our sun is set, our day is done
               Am
 I´m left here wondering
Dm                         F           C
 Is this the end, my final words to you
Dm                           C
 Day turned to night and now you´re gone
               Am
 I´m left here pondering
Dm                        F             C
 Can this be true, are we really through

Am             Em
 You were the wind beneath my wings
F                  C   Em
 Tought me how to fly
Am           Em
 With you I lived among the kings
C               D
 How could this ever die

F     Am      F                   G
 So I say farewell, I´m yours forever
Dm      F   G      Am
 And I always will be

Dm                     C                 Am
 We were one, we were all, we were the only
Dm                                  F               C
 Future full of hope, nothing could stand in your way
Dm                               C               Am
 But dreams can change, visions fall, I fell so lonely
Dm                              F             C
 I would walk througt fire for just one more day

Am            Em               F                  C   Em
 You were the angel of my life, taught me to be free
Am          Em
 Now I´m stranger in your eyes
C                      D
 The walls are closing in on me

F      Am     F                   G
 So I say farewell, I´m yours forever
Dm      F   G      Am
 And I always will be
F        Am        F                 G
 Missing you in my heart you are the one
Dm        F   G      Am
 And you always will be

C            D           Bm            Em
 When I turn to the east, I see no dawn
C           D               Bm
 But after darkness comes the light
C                D              Bm                      Em
 And when I turn to the west, the silent night hides all
F             C                     G
 Where is the light that shines so bright

F      Am     F                   G
 So I say farewell, I´m yours forever
Dm      F   G      Am
 And I always will be
F        Am        F                 G
 Missing you in my heart you are the one
Dm        F   G      Am
 And you always will be

F#         A#m            F#               G#
 Nah-nah-nah - nah-nah-nah- nah-nah-nah-nah-nah
D#m     F#   G#      A#m
 And you always will be
F#         A#m            F#               G#
 Nah-nah-nah - nah-nah-nah- nah-nah-nah-nah-nah
D#m     F#   G#      A#m
 And you always will be
D#m     F#   G#      A#m
 And you always will be my little one you are
D#m     F#   G#         C#
 And you always will be
Composición de Hammerfall
Colaboración y revisión:
  • Iago Nilton
  • Eric Castoldi
  • Rodolfo dias
474 vistas
    • ½ Tono
    • A
    • Bb
    • B
    • C
    • Db
    • D
    • Eb
    • E
    • F
    • F#
    • G
    • Ab
  • Agregar a la lista

    0 comentarios

    Ver todos los comentarios

    ¿Lograste tocar?

    2 Tocaron 0 Aún no

    ¡Graba un video tocando Always will be y envíanoslo!

    00:00 / 00:00
    Outros vídeos desta música
    Repetir Calidad Automático
    Outros vídeos desta música
    00:00 / 00:00
    Automático
    OK