Cifra Club

Hero`s Return

HammerFall

Cifrado: Principal (guitarra y guitarra eléctrica)
Acompaña nuestras novedades de Cifra Club en español.
¡Sigue nuestro perfil en Instagram!
tono: Ab
Guitar 1 Intro: 
 
e ||----------------------------------------------------------------------------------|| 
b ||----------------------------------------------------------------------------------|| 
g ||--11-13-11-10----- 11~----11-13-13b(15)r13p11-13~-----|| 
D ||----------------------13-------------------------------------------------------|| 
A ||---------------------------------------------------------------------------------|| 
E ||---------------------------------------------------------------------------------|| 
 
e ||--------------------------------------------------------------11~--13~--11--------------|| 
b ||---11-11b(12)r11-----12-14-12-11-12-14~-----------------------------------|| 
g ||13----------------------13------------------------------------------------------------------|| 
D ||-----------------------------------------------------------------------------------------------|| 
A ||-----------------------------------------------------------------------------------------------|| 
E ||-----------------------------------------------------------------------------------------------|| 
 
Intro Guitar 2: 
 
e ||---------------------------------------------------------------------------------------------------------------------------------------------------------------------------------|| 
b ||---------------------------------------------------------------------------------------------------------------------------------------------------------------------------------|| 
g ||---------------------------------------------------------------------------------------------------------------------------------------------------------------------------------|| 
d ||--------------------------------------2--------------------------------7-------------------------------------------------------------------------------------------------------|| 
a ||--------------------------------------2--------------------------------5-------------------------------- 12------------------------------------------------------------------|| 
e ||-----0000000000000000 03333333333333333--5555555588888888-10------------------------------------------------------------------II 
 
 
 
 
e ||------------------------------------------------------------------------------------------------------------------------------------------|| 
b ||------------------------------------------------------------------------------------------------------------------------------------------|| 
g ||------------------------------------------------------------------------------------------------------------------------------------------|| 
d ||------------------------------------------------------------------------------------------------------------------------------------------|| 
a ||--------------------------------------------------------------------------------------------------5-4-3--------------------------------II 
e ||---0--000-000-000-2-3-0--000-000-000-2-3--0--000-000-000-2-3----------5-4-3-2---------------------II 
                                                                                                                                                  
e ||------------------------------------------------------------------------------------------------------------------------------------------|| 
b ||------------------------------------------------------------------------------------------------------------------------------------------|| 
g ||------------------------------------------------------------------------------------------------------------------------------------------|| 
D ||------------------------------------------------------------------------------------------------------------------------------------------|| 
A ||---0---------------------------------0--------------------------0-----------------------------5-4-3---------------------------------|| 
E ||---2---------------------------------2--------------------------2-------------------------------------5-4-3-2----------------------|| 
 
 
 
e ||------------------------------------------------------------------------------------------------------------------------------------------------------------|| 
b ||------------------------------------------------------------------------------------------------------------------------------------------------------------|| 
g ||------------------------------------------------------------------------------------------------------------------------------------------------------------|| 
d ||--------------------------------------9-9---------------------------2-------------------------------------9-9-----------------------------2-----------|| 
a ||--------------------------------------7-7--555555555555-4-5----------------------------------7-7--5555555222222-4-5--------|| 
e ||----00000000000000000-----------------------------------3--0000000000000000-------------------------------------3--------|| 
 
 
 
e ||------------------------------------------------------------------------------------------------------------------------------------------|| 
b ||------------------------------------------------------------------------------------------------------------------------------------------|| 
g ||------------------------------------------------------------------------------------------------------------------------------------------|| 
d ||-------------5-----7---------------------------------------------5-----7-----------------------4--4----------------------4--4-----II 
a ||-------------3-----5---------------------------------------------3-----5--2222222222-2--2-2222222222-2--2-----|| 
e ||---------------------------0000000-2-3-000000-2-3------------------------------------------------------------------------|| 
 
 
Bridge (2:38): 
 
e ||-----------------------------------------------------------------------------------------------|| 
b ||-----------------------------------------------------------------------------------------------|| 
g ||-----------------------------------------------------------------------------------------------|| 
d ||------2------9-----0----0-----9----9---0------------------------------------------------|| 
a ||------2------9-----0----0-----9----9---0------------------------------------------------|| 
e ||------0------7-----2----2-----7----7---2------------------------------------------------II 
 
 
Solo Guitar 2: 
 
e ||-------------------------------------------------------------------------------------------------------------------------------------------------------------------------------------------------------------------|| 
b ||-------------------------------------------------------------------------------------------------------------------------------------------------------------------------------------------------------------------|| 
g ||-------------------------------------------------------------------------------------------------------------------------------------------------------------------------------------------------------------------|| 
D ||--------2----------4--------------------------------------------------------------------------------------------------------------------------------------------------------------------------------------------|| 
A ||--------0----2----2---4---2-----------0000000000000000----------------------------------2222222222222225555558888881010101010---------------------------|| 
E ||--------------0---------2---0-------------------------------------------00000000000000000-------------------------------------------------------------------------5555555555555--|| 
 
 
 
e ||------------------------------------------------------------------------------------------------------------------------------------------------|| 
b ||------------------------------------------------------------------------------------------------------------------------------------------------|| 
g ||------------------------------------------------------------------------------------------------------------------------------------------------|| 
D ||-----------7----2----9---4---2------------------------------------------------------------------------------------------------------------|| 
A ||-----------5----0----7---2---0-----55555555550000000000077777777777755555555588888810101010121212121212---------|| 
E ||-----------------------------------------------------------------------------------------------------------------------------------------------|| 
 
e ||-------------------------------------------------------------------------------------------------------------------------------------------------------------------------------------|| 
b ||-------------------------------------------------------------------------------------------------------------------------------------------------------------------------------------|| 
g ||-------------------------------------------------------------------------------------------------------------------------------------------------------------------------------------|| 
D ||------------------10---9-------------------9-------------10---9----7----------------------------------------------------------------4--4-----------------9---------------|| 
A ||------------------8-----7---------------9--7-------------8-----7----5---------------4-~-~-~-----------------------444444--2--2---777777--7---------------|| 
E ||------000000----------000000--7-----000000-----------------------------------------------------------------------------------------------------------------------||
Composición de Oscar Dronjak / Roger Waters
41 vistas
    • ½ Tono
    • A
    • Bb
    • B
    • C
    • Db
    • D
    • Eb
    • E
    • F
    • F#
    • G
    • Ab
  • Agregar a la lista

    0 comentarios

    Ver todos los comentarios

    ¿Lograste tocar?

    0 Tocaron 0 Aún no

    ¡Graba un video tocando Hero`s Return y envíanoslo!

    00:00 / 00:00
    Outros vídeos desta música
    Repetir Calidad Automático
    Outros vídeos desta música
    00:00 / 00:00
    Automático
    OK