Cifra Club

Man On The Silver Mountain

HammerFall

Cifrado: Principal (guitarra y guitarra eléctrica)
Acompaña nuestras novedades de Cifra Club en español.
¡Sigue nuestro perfil en Instagram!
tono: D
Essa é uma versão do HAMMERFALL .... Um tributo a DIO
(ORIGINAL em G = essa em F#)... mas igual...

------------------------------------------------------------------------------
------------------------------------------------------------------------------
----------2-------------2--------------2--------------------------------------
----4-2-4-2-4-4---4-2-4-2-4------4-2-4-2-4---4-2-0----------------------------
-4--4-2-4---4-4---4-2-4---4---4--4-2-4---4---4-2-0----------------------------
-2----------------------------2-----------------------------------------------
 |____________________(INTRO)______________________|                                                                    

------------------------------------------------------------------------------
------------------------------------------------------------------------------
------------4-----------------------------------------------------------------
------2-----------4-----4--------7-----9--------------------------------------
--------2-2----------------------------------2-----2--------------------------
--0-0---------2-2---2-2----10-10---7-7---0-0---0-0----------------------------
 ....  ...   ....  ....    .....  ....  ....  ..... -> P.M                    
VERSE 1

------------------------------------------------------------------------------
------------------------------------------------------------------------------
------------------------------------------------------------------------------
------4-----2-----9-----9-------7-----9-----4-----4---------------------------
------------------------------------------------------------------------------
--2-2---0-0---7-7---7-7---10-10---7-7---2-2---2-2-----------------------------
 ....  ....  ..... ....  ......  ....  ....  .... -> P.M                            
VERSE 2

                     ????????????????????????????????????????   
-------------------|--4h0---0-|-5h0---0-|-4h0---0-|-7h4---4-|-----------------
-------------------|------2---|-----2---|-----2---|-----5---|-----------------
--6----2----6------|----------|---------|---------|---------|-----------------
--6----2----6---6--|---(C#)---|---(A)---|---(C#)--|---(Ab)--|-----------------
--4----0----4---6--|----------|---------|---------|---------|-----------------
----------------4--|----------|---------|---------|---------|-----------------
 Pre Chorus          .4times.  .4times.  .4times.  .4times.                 
 |___(GUITAR 1)___| |_______________GUITAR 2 _______________|


------------------------------------------------------------------------------
------------------------------------------------------------------------------
--2--4--2-----7--9------------------------------------------------------------
--2--4--2--4--7--9-------------intro + verse1 + verse2 + chorus (solo)--------
--0--2--0--4--5--7------------------------------------------------------------
-----------2------------------------------------------------------------------
|_____CHORUS______|
Composición de Ritchie Blackmore / Ronnie James Dio
Colaboración y revisión:
  • Taino Vieira
28 vistas
    • ½ Tono
    • A
    • Bb
    • B
    • C
    • Db
    • D
    • Eb
    • E
    • F
    • F#
    • G
    • Ab
  • Agregar a la lista

    0 comentarios

    Ver todos los comentarios

    ¿Lograste tocar?

    0 Tocaron 0 Aún no

    ¡Graba un video tocando Man On The Silver Mountain y envíanoslo!

    00:00 / 00:00
    Outros vídeos desta música
    Repetir Calidad Automático
    Outros vídeos desta música
    00:00 / 00:00
    Automático
    OK