Cifra Club

Riders of the Storm

HammerFall

Cifrado: Principal (guitarra y guitarra eléctrica)
Acompaña nuestras novedades de Cifra Club en español.
¡Sigue nuestro perfil en Instagram!
tono: G
Guitar 1 
                                                                            
D#||-------------------------|------------------|-------------------------| 
A#||-------------------------|------------------|-------------------------| 
F#||-------------------------|------------------|--5--5--------5----4--7--| 
C#||--2--2--------5----0--2--|------------------|--5--5--------5----4--7--| 
G#||--2--2--------5----0--2--|------------------|--3--3--3--3--3----2--5--| 
D#||--0--0--0--0-------------|------------------|-------------------------| 
                                                                 
------------------|-------------------------|------------------| 
------------------|-------------------------|------------------| 
------------------|-------------------------|------------------| 
------------------|--2--2--------5----0--2--|------------------| 
------------------|--2--2--------5----0--2--|------------------| 
------------------|--0--0--0--0-------------|------------------| 
                                                                         
-------------------------|------------------|--------------------------| 
-------------------------|------------------|--------------------------| 
--5--5--------5----4--7--|------------------|--------------------------| 
--5--5--------5----4--7--|------------------|--2--2--------5-----0--2--| 
--3--3--3--3--3----2--5--|------------------|--2--2--------5-----0--2--| 
-------------------------|------------------|--0--0--0--0-----0--------| 
                                                                                
-------------------------|--------------------------|-------------------------| 
-------------------------|--------------------------|-------------------------| 
-------------------------|--5--5--------5-----4--7--|----7--------7-----7-----| 
-------------2-----2-----|--5--5--------5-----4--7--|----7--------7-----7-----| 
-------------2-----2-----|--3--3--3--3--3--3--2--5--|----5--5--5--5--5--5--5--| 
----0--0--0-----0-----0--|--------------------------|-------------------------| 
                                                                                 
--------------------------|-------------------------|--------------------------| 
--------------------------|-------------------------|--------------------------| 
--------------------------|-------------------------|--5--5--------5-----4--7--| 
--2--2--------5-----0--2--|-------------2-----2-----|--5--5--------5-----4--7--| 
--2--2--------5-----0--2--|-------------2-----2-----|--3--3--3--3--3--3--2--5--| 
--0--0--0--0-----0--------|----0--0--0-----0-----0--|--------------------------| 
                                                                 
------------------|---------------------|---------------------| 
------------------|---------------------|---------------------| 
------------------|---------------------|---------------------| 
------------------|---------------------|------5--4----5------| 
------------------|------7--5----7------|------7--5----7------| 
------------------|------7--5----7------|---------------------| 
                                                                   
---------------------|---------------------|---------------------| 
---------------------|---------------------|---------------------| 
---------------------|---------------------|---------------------| 
------5--4----5------|------5--4----5------|---------------------| 
------7--5----7------|------7--5----7------|------7--5----7------| 
---------------------|---------------------|------7--5----7------| 
                                                                      
---------------------|---------------------|------------------------| 
---------------------|---------------------|------------------------| 
---------------------|---------------------|------------------------| 
------5--4----5------|------5--4----5------|------------------------| 
------7--5----7------|------7--5----7------|--------9----------7----| 
---------------------|---------------------|--7--7--7----5--5--5----| 
                                                                   
---------------------|---------------------|---------------------| 
---------------------|---------------------|---------------------| 
---------------------|---------------------|---------------------| 
---------------------|------5--4----5------|------5--4----5------| 
------7--5----7------|------7--5----7------|------7--5----7------| 
------7--5----7------|---------------------|---------------------| 
                                                                   
---------------------|---------------------|---------------------| 
---------------------|---------------------|---------------------| 
---------------------|---------------------|---------------------| 
------5--4----5------|---------------------|------5--4----5------| 
------7--5----7------|------7--5----7------|------7--5----7------| 
---------------------|------7--5----7------|---------------------| 
                                                                   
---------------------|------------------------|-------------------| 
---------------------|------------------------|-------------------| 
---------------------|------------------------|-------------------| 
------5--4----5------|------------------------|--5----------------| 
------7--5----7------|--------9----------7----|--5----------------| 
---------------------|--7--7--7----5--5--5----|--3----------------| 
                                                                    
------------------|-----------------------|-----------------------| 
------------------|-----------------------|-----------------------| 
------------------|--------4--2----4------|--------4--2----4------| 
------------------|--------4--2----4------|--------4--2----4------| 
------------------|--2--2-----------------|--2--2-----------------| 
------------------|-----------------------|-----------------------| 
                                                                     
---------------------|----------------------|--5--------------5----| 
--5------7------8----|--8----5--7------8----|-------7----8---------| 
---------------------|----------------------|----------------------| 
---------------------|----------------------|----------------------| 
---------------------|----------------------|----------------------| 
---------------------|----------------------|----------------------| 
                                                                               
--7----8----10----12----|--------------------------|-------------------------| 
------------------------|--------------------------|-------------------------| 
------------------------|--------------------------|-------------------------| 
------------------------|--2--2--------5-----0--2--|----2--------2-----2-----| 
------------------------|--2--2--------5-----0--2--|----2--------2-----2-----| 
------------------------|--0--0--0--0-----0--------|-------0--0-----0-----0--| 
 
                                                                                
--------------------------|-------------------------|--------------------------| 
--------------------------|-------------------------|--------------------------| 
--5--5--------5-----4--7--|----7--------7-----7-----|--------------------------| 
--5--5--------5-----4--7--|----7--------7-----7-----|--2--2--------5-----0--2--| 
--3--3--3--3--3--3--2--5--|----5--5--5--5--5--5--5--|--2--2--------5-----0--2--| 
--------------------------|-------------------------|--0--0--0--0-----0--------| 
                                                                         
-------------------------|--------------------------|------------------| 
-------------------------|--------------------------|------------------| 
-------------------------|--5--5--------5-----4--7--|------------------| 
----2--------2-----2-----|--5--5--------5-----4--7--|------------------| 
----2--------2-----2-----|--3--3--3--3--3--3--2--5--|------------------| 
-------0--0-----0-----0--|--------------------------|------------------| 
                                                                  
---------------------|---------------------|---------------------| 
---------------------|---------------------|---------------------| 
---------------------|---------------------|---------------------| 
---------------------|------5--4----5------|------5--4----5------| 
------7--5----7------|------7--5----7------|------7--5----7------| 
------7--5----7------|---------------------|---------------------| 
                                                                   
---------------------|---------------------|---------------------| 
---------------------|---------------------|---------------------| 
---------------------|---------------------|---------------------| 
------5--4----5------|---------------------|------5--4----5------| 
------7--5----7------|------7--5----7------|------7--5----7------| 
---------------------|------7--5----7------|---------------------| 
                                                                     
---------------------|------------------------|---------------------| 
---------------------|------------------------|---------------------| 
---------------------|------------------------|---------------------| 
------5--4----5------|------------------------|---------------------| 
------7--5----7------|--------9----------7----|------7--5----7------| 
---------------------|--7--7--7----5--5--5----|------7--5----7------| 
                                                                   
---------------------|---------------------|---------------------| 
---------------------|---------------------|---------------------| 
---------------------|---------------------|---------------------| 
------5--4----5------|------5--4----5------|------5--4----5------| 
------7--5----7------|------7--5----7------|------7--5----7------| 
---------------------|---------------------|---------------------| 
                                                                   
---------------------|---------------------|---------------------| 
---------------------|---------------------|---------------------| 
---------------------|---------------------|---------------------| 
---------------------|------5--4----5------|------5--4----5------| 
------7--5----7------|------7--5----7------|------7--5----7------| 
------7--5----7------|---------------------|---------------------| 
                                                                 
------------------------|-------------------|------------------| 
------------------------|-------------------|------------------| 
------------------------|-------------------|------------------| 
------------------------|--5----------------|------------------| 
--------9----------7----|--5----------------|------------------| 
--7--7--7----5--5--5----|--3----------------|------------------| 
                                                                       
-----------------------|-----------------------|---------------------| 
-----------------------|-----------------------|--5------7------8----| 
--------4--2----4------|--------4--2----4------|---------------------| 
--------4--2----4------|--------4--2----4------|---------------------| 
--2--2-----------------|--2--2-----------------|---------------------| 
-----------------------|-----------------------|---------------------| 
                                                                        
----------------------|--5--------------5----|--7----8----10----12~---| 
--8----5--7------8----|-------7----8---------|------------------------| 
----------------------|----------------------|------------------------| 
----------------------|----------------------|------------------------| 
----------------------|----------------------|------------------------| 
----------------------|----------------------|------------------------| 
                                                                                 
--------------------------|-------------------------|--------------------------| 
--------------------------|-------------------------|--------------------------| 
--------------------------|-------------------------|--5--5--------5-----4--7--| 
--2--2--------5-----0--2--|----2--------2-----2-----|--5--5--------5-----4--7--| 
--2--2--------5-----0--2--|----2--------2-----2-----|--3--3--3--3--3--3--2--5--| 
--0--0--0--0-----0--------|-------0--0-----0-----0--|--------------------------| 
                                                                                 
-------------------------|--------------------------|-------------------------| 
-------------------------|--------------------------|-------------------------| 
----7--------7-----7-----|--------------------------|-------------------------| 
----7--------7-----7-----|--2--2--------5-----0--2--|----2--------2-----2-----| 
----5--5--5--5--5--5--5--|--2--2--------5-----0--2--|----2--------2-----2-----| 
-------------------------|--0--0--0--0-----0--------|-------0--0-----0-----0--| 
                                              
--------------------------|------------------| 
--------------------------|------------------| 
--5--5--------5-----4--7--|------------------| 
--5--5--------5-----4--7--|------------------| 
--3--3--3--3--3--3--2--5--|------------------| 
--------------------------|------------------| 
                                                                      
----------------------------------|----------------------------------| 
----0-0-0---0-0-0---0-0-0---0-0-0-|----0-0-0---0-0-0---0-0-0---0-0-0-| 
--9-------7-------6-------7-------|--9-------7-------6-------7-------| 
----------------------------------|----------------------------------| 
----------------------------------|----------------------------------| 
----------------------------------|----------------------------------| 
                                                                       
----------------------------------|----------------------------------| 
----0-0-0---0-0-0---0-0-0---0-0-0-|----0-0-0---0-0-0---0-0-0---0-0-0-| 
--9-------7-------6-------7-------|--9-------7-------6-------7-------| 
----------------------------------|----------------------------------| 
----------------------------------|----------------------------------| 
----------------------------------|----------------------------------| 
                                                                       
----------------------------------|----------------------------------| 
----0-0-0---0-0-0---0-0-0---0-0-0-|----0-0-0---0-0-0---0-0-0---0-0-0-| 
--9-------7-------6-------7-------|--9-------7-------6-------7-------| 
----------------------------------|----------------------------------| 
----------------------------------|----------------------------------| 
----------------------------------|----------------------------------| 
                                                                      
----------------------------------|----------------------------------| 
----0-0-0---0-0-0---0-0-0---0-0-0-|----0-0-0---0-0-0---0-0-0---0-0-0-| 
--9-------7-------6-------7-------|--9-------7-------6-------7-------| 
----------------------------------|----------------------------------| 
----------------------------------|----------------------------------| 
----------------------------------|----------------------------------| 
                                                         
--------------------14------|------------------14------| 
--15--------15--17------15--|----------15--17------17--| 
----------------------------|--------------------------| 
----------------------------|--------------------------| 
----------------------------|--------------------------| 
----------------------------|--------------------------| 
                                                    
------------------------|-------------------------| 
----15----14--------15--|----14----12--12/---0----| 
------------------------|-------------------------| 
------------------------|-------------------------| 
------------------------|-------------------------| 
------------------------|-------------------------| 
                                                                               
--------------------------------------|--------------------------------------| 
--12-0-0-0-14-0-0-0-15-0-0-0-14-0-0-0-|--17-0-0-0-15-0-0-0-14-0-0-0-12-0-0-0-| 
--------------------------------------|--------------------------------------| 
--------------------------------------|--------------------------------------| 
--------------------------------------|--------------------------------------| 
--------------------------------------|--------------------------------------| 
                                                     
--------------------14------|----------------------| 
--15--------15--17------15b-|----15----14----------| 
----------------------------|----------------------| 
----------------------------|----------------------| 
----------------------------|----------------------| 
----------------------------|----------------------| 
                                                                   
--------------------------------|--------------------------------| 
----12--12--12--12--14--15--12--|----12--12--12--12--14--15--14--| 
--------------------------------|--------------------------------| 
--------------------------------|--------------------------------| 
--------------------------------|--------------------------------| 
--------------------------------|--------------------------------| 
                                                            
------------------------12------|-------------------------| 
----14--14--14--14--15------15--|----14----12--12/---5----| 
--------------------------------|-------------------------| 
--------------------------------|-------------------------| 
--------------------------------|-------------------------| 
--------------------------------|-------------------------| 
                                    
------14--14------14--14------14--| 
--12----------12----------12------| 
----------------------------------| 
----------------------------------| 
----------------------------------| 
----------------------------------| 
                                                                                 
--14-12-------------------------------10-12-14-15-|--15--------15--17--17b-17--| 
--------15-14-15-14----------14-15-17-------------|----------------------------| 
--------------------16-14-16----------------------|----------------------------| 
--------------------------------------------------|----------------------------| 
--------------------------------------------------|----------------------------| 
--------------------------------------------------|----------------------------| 
                                                                          
----------17--19--21----|--22---------------------|----------------------| 
------------------------|--------------10--8------|----------------------| 
------------------------|---------------------10--|--9----10--7----------| 
------------------------|-------------------------|----------------------| 
------------------------|-------------------------|----------------------| 
------------------------|-------------------------|----------------------| 
                                                                           
-----------------------|------------------------|------------------------| 
------------10--8------|------------------------|-------------10--8------| 
-------------------10--|--9----10--7------------|--7-----------------10--| 
-----------------------|------------------10----|------------------------| 
-----------------------|------------------------|------------------------| 
-----------------------|------------------------|------------------------| 
                                                                      
----------------------|-------------------------|--------------------| 
----------------------|------------6--8--10--6b-|----6----5----------| 
--9----10--7----------|--10---------------------|--------------------| 
----------------------|-------------------------|--------------------| 
----------------------|-------------------------|--------------------| 
----------------------|-------------------------|--------------------| 
                                                                            
------------17--15------|------------------------|------------17--15------| 
--------------------18--|--17----18--15----------|--------------------18--| 
------------------------|------------------------|------------------------| 
------------------------|------------------------|------------------------| 
------------------------|------------------------|------------------------| 
------------------------|------------------------|------------------------| 
                                                                                
--------------------------|--------------17--15------|------------------------| 
--17----18--15------------|--15------------------18--|--17----18--15----------| 
--------------------17----|--------------------------|------------------------| 
--------------------------|--------------------------|------------------------| 
--------------------------|--------------------------|------------------------| 
--------------------------|--------------------------|------------------------| 
                                                               
--------------15----------15--|--17--15------------------17--| 
--15--17--18--------18--------|----------18--17----18--------| 
------------------------------|------------------------------| 
------------------------------|------------------------------| 
------------------------------|------------------------------| 
------------------------------|------------------------------| 
                                                                         
--19----------------------|------------------|-------------------------| 
--------------------------|------------------|-------------------------| 
--------------------------|------------------|--5--5--------5----4--7--| 
--2---2--------5----0--2--|------------------|--5--5--------5----4--7--| 
--2---2--------5----0--2--|------------------|--3--3--3--3--3----2--5--| 
--0---0--0--0-------------|------------------|-------------------------| 
                                                                 
------------------|-------------------------|------------------| 
------------------|-------------------------|------------------| 
------------------|-------------------------|------------------| 
------------------|--2--2--------5----0--2--|------------------| 
------------------|--2--2--------5----0--2--|------------------| 
------------------|--0--0--0--0-------------|------------------| 
                                                                        
-------------------------|------------------|-------------------------| 
-------------------------|------------------|-------------------------| 
--5--5--------5----4--7--|------------------|-------------------------| 
--5--5--------5----4--7--|------------------|--5--5--------3-------5--| 
--3--3--3--3--3----2--5--|------------------|--5--5--------1-------5--| 
-------------------------|------------------|--3--3--3--3-------1--3--| 
                                                      
-------------------------|---------------------------| 
-------------------------|---------------------------| 
-------------------------|--8--8--------8-----7--10--| 
----5--------5-----5-----|--8--8--------8-----7--10--| 
----5--------5-----5-----|--6--6--6--6--6--6--5--8---| 
----3--3--3--3--3--3--3--|---------------------------| 
                                                        
----------------------------|-------------------------| 
----------------------------|-------------------------| 
----10--------10-----10-----|-------------------------| 
----10--------10-----10-----|--5--5--------3-------5--| 
----8---8--8--8---8--8---8--|--5--5--------1-------5--| 
----------------------------|--3--3--3--3-------1--3--| 
                                                       
-------------------------|---------------------------| 
-------------------------|---------------------------| 
-------------------------|--8--8--------8-----7--10--| 
----5--------5-----5-----|--8--8--------8-----7--10--| 
----5--------5-----5-----|--6--6--6--6--6--6--5--8---| 
----3--3--3--3--3--3--3--|---------------------------| 
                                                                                 
---------------------------|-------------------------|-------------------------| 
---------------------------|-------------------------|-------------------------| 
----10--------10-----10----|-------------------------|-------------------------| 
----10--------10-----10----|--5--5--------3-------5--|----5--------5-----5-----| 
----8---8--8--8---8--8-----|--5--5--------1-------5--|----5--------5-----5-----| 
---------------------------|--3--3--3--3-------1--3--|----3--3--3--3--3--3--3--| 
                                                          
---------------------------|----------------------------| 
---------------------------|----------------------------| 
--8--8--------8-----7--10--|----10--------10-----10-----| 
--8--8--------8-----7--10--|----10--------10-----10-----| 
--6--6--6--6--6--6--5--8---|----8---8--8--8---8--8---8--| 
---------------------------|----------------------------| 
                                                                               
-------------------------|-------------------------|------------------------| 
-------------------------|-------------------------|------------------------| 
-------------------------|-------------------------|--8--8------8----7--10--| 
--5--5--------3-------5--|----5--------5-----5-----|--8--8------8----7--10--| 
--5--5--------1-------5--|----5--------5-----5-----|--6--6------6----5--8---| 
--3--3--3--3-------1--3--|----3--3--3--3--3--3--3--|------------------------| 
                                                           
------------------|------------------|------------------|| 
------------------|------------------|------------------|| 
------------------|------------------|------------------|| 
------------------|------------------|------------------|| 
------------------|------------------|------------------|| 
------------------|------------------|------------------|| 
                                                   
Guitar 2 
                                                                    
D#||--------------------|------------------|----------------------| 
A#||--------------------|------------------|----------------------| 
F#||--------------------|------------------|--5--5----------4--7--| 
C#||--2--2--------------|------------------|--5--5----------4--7--| 
G#||--2--2--------------|------------------|--3--3----------2--5--| 
D#||--0--0--------------|------------------|----------------------| 
                                                           
------------------|--------------------|------------------| 
------------------|--------------------|------------------| 
------------------|--------------------|------------------| 
------------------|--2--2--------------|------------------| 
------------------|--2--2--------------|------------------| 
------------------|--0--0--------------|------------------| 
                                                                      
----------------------|------------------|--------------------------| 
----------------------|------------------|--------------------------| 
--5--5----------4--7--|------------------|--------------------------| 
--5--5----------4--7--|------------------|--2--2--------5-----0--2--| 
--3--3----------2--5--|------------------|--2--2--------5-----0--2--| 
----------------------|------------------|--0--0--0--0-----0--------| 
                                                                                
-------------------------|--------------------------|-------------------------| 
-------------------------|--------------------------|-------------------------| 
-------------------------|--5--5--------5-----4--7--|----7--------7-----7-----| 
----2--------2-----2-----|--5--5--------5-----4--7--|----7--------7-----7-----| 
----2--------2-----2-----|--3--3--3--3--3--3--2--5--|----5--5--5--5--5--5--5--| 
-------0--0-----0-----0--|--------------------------|-------------------------| 
                                                                                 
--------------------------|-------------------------|--------------------------| 
--------------------------|-------------------------|--------------------------| 
--------------------------|-------------------------|--5--5--------5-----4--7--| 
--2--2--------5-----0--2--|----2--------2-----2-----|--5--5--------5-----4--7--| 
--2--2--------5-----0--2--|----2--------2-----2-----|--3--3--3--3--3--3--2--5--| 
--0--0--0--0-----0--------|-------0--0-----0-----0--|--------------------------| 
                                                                          
------------------|--------------------------|--------------------------| 
------------------|--------------------------|--------------------------| 
------------------|--------------------------|--------------------------| 
------------------|--------------------------|--------------------------| 
------------------|--------------------------|--3--3--3--3--3--3--3--3--| 
------------------|--0--0--0--0--0--0--0--0--|--------------------------| 
                                                       
--------------------------|--------------------------| 
--------------------------|--------------------------| 
--------------------------|--------------------------| 
--------------------------|--------------------------| 
--------------------------|--5--5--5--5--5--5--5--5--| 
--3--3--3--3--3--3--3--3--|--------------------------| 
                                                       
--------------------------|--------------------------| 
--------------------------|--------------------------| 
--------------------------|--------------------------| 
--------------------------|--------------------------| 
--------------------------|--3--3--3--3--3--3--3--3--| 
--0--0--0--0--0--0--0--0--|--------------------------| 
                                                                                
--------------------------|------------------------|--------------------------| 
--------------------------|------------------------|--------------------------| 
--------------------------|------------------------|--------------------------| 
--------------------------|--------9----------7----|--------------------------| 
--------------------------|--------9----------7----|--------------------------| 
--3--3--3--3--3--3--3--3--|--7--7--7----5--5--5----|--0--0--0--0--0--0--0--0--| 
                                                       
--------------------------|--------------------------| 
--------------------------|--------------------------| 
--------------------------|--------------------------| 
--------------------------|--------------------------| 
--3--3--3--3--3--3--3--3--|--------------------------| 
--------------------------|--3--3--3--3--3--3--3--3--| 
                                                       
--------------------------|--------------------------| 
--------------------------|--------------------------| 
--------------------------|--------------------------| 
--------------------------|--------------------------| 
--5--5--5--5--5--5--5--5--|--------------------------| 
--------------------------|--0--0--0--0--0--0--0--0--|  
                                                                                
--------------------------|--------------------------|------------------------| 
--------------------------|--------------------------|------------------------| 
--------------------------|--------------------------|------------------------| 
--------------------------|--------------------------|--------9----------7----| 
--3--3--3--3--3--3--3--3--|--------------------------|--------9----------7----| 
--------------------------|--3--3--3--3--3--3--3--3--|--7--7--7----5--5--5----| 
                                                                                
-------------------|------------------|-------------------|-------------------| 
-------------------|------------------|-------------------|-------------------| 
-------------------|------------------|-------------------|-------------------| 
--5----------------|------------------|--9----------------|--9----------------| 
--5----------------|------------------|--9----------------|--9----------------| 
--3----------------|------------------|--7----------------|--7----------------| 
                                                                               
-------------------|-------------------|-------------------|-------------------| 
-------------------|-------------------|-------------------|-------------------| 
--5----------------|--5----------------|--7----------------|--7----------------| 
--5----------------|--5----------------|--7----------------|--7----------------| 
--3----------------|--3----------------|--5----------------|--5----------------| 
-------------------|-------------------|-------------------|-------------------| 
                                                                                
--------------------------|-------------------------|--------------------------| 
--------------------------|-------------------------|--------------------------| 
--------------------------|-------------------------|--5--5--------5-----4--7--| 
--2--2--------5-----0--2--|----2--------2-----2-----|--5--5--------5-----4--7--| 
--2--2--------5-----0--2--|----2--------2-----2-----|--3--3--3--3--3--3--2--5--| 
--0--0--0--0-----0--------|-------0--0-----0-----0--|--------------------------| 
                                                                                
-------------------------|--------------------------|-------------------------| 
-------------------------|--------------------------|-------------------------| 
----7--------7-----7-----|--------------------------|-------------------------| 
----7--------7-----7-----|--2--2--------5-----0--2--|----2--------2-----2-----| 
----5--5--5--5--5--5--5--|--2--2--------5-----0--2--|----2--------2-----2-----| 
-------------------------|--0--0--0--0-----0--------|-------0--0-----0-----0--| 
                                                                          
--------------------------|------------------|--------------------------| 
--------------------------|------------------|--------------------------| 
--5--5--------5-----4--7--|------------------|--------------------------| 
--5--5--------5-----4--7--|------------------|--------------------------| 
--3--3--3--3--3--3--2--5--|------------------|--------------------------| 
--------------------------|------------------|--0--0--0--0--0--0--0--0--| 
                                                        
--------------------------|--------------------------| 
--------------------------|--------------------------| 
--------------------------|--------------------------| 
--------------------------|--------------------------| 
--3--3--3--3--3--3--3--3--|--------------------------| 
--------------------------|--3--3--3--3--3--3--3--3--| 
                                                       
--------------------------|--------------------------| 
--------------------------|--------------------------| 
--------------------------|--------------------------| 
--------------------------|--------------------------| 
--5--5--5--5--5--5--5--5--|--------------------------| 
--------------------------|--0--0--0--0--0--0--0--0--| 
                                                                                
--------------------------|--------------------------|------------------------| 
--------------------------|--------------------------|------------------------| 
--------------------------|--------------------------|------------------------| 
--------------------------|--------------------------|--------9----------7----| 
--3--3--3--3--3--3--3--3--|--------------------------|--------9----------7----| 
--------------------------|--3--3--3--3--3--3--3--3--|--7--7--7----5--5--5----| 
                                                       
--------------------------|--------------------------| 
--------------------------|--------------------------| 
--------------------------|--------------------------| 
--------------------------|--------------------------| 
--------------------------|--3--3--3--3--3--3--3--3--| 
--0--0--0--0--0--0--0--0--|--------------------------| 
                                                       
--------------------------|--------------------------| 
--------------------------|--------------------------| 
--------------------------|--------------------------| 
--------------------------|--------------------------| 
--------------------------|--5--5--5--5--5--5--5--5--| 
--3--3--3--3--3--3--3--3--|--------------------------| 
                                                       
--------------------------|--------------------------| 
--------------------------|--------------------------| 
--------------------------|--------------------------| 
--------------------------|--------------------------| 
--------------------------|--3--3--3--3--3--3--3--3--| 
--0--0--0--0--0--0--0--0--|--------------------------| 
                                                                         
--------------------------|------------------------|-------------------| 
--------------------------|------------------------|-------------------| 
--------------------------|------------------------|-------------------| 
--------------------------|--------9----------7----|--5----------------| 
--------------------------|--------9----------7----|--5----------------| 
--3--3--3--3--3--3--3--3--|--7--7--7----5--5--5----|--3----------------| 
                                                                                
------------------|-------------------|-------------------|-------------------| 
------------------|-------------------|-------------------|-------------------| 
------------------|-------------------|-------------------|--5----------------| 
------------------|--9----------------|--9----------------|--5----------------| 
------------------|--9----------------|--9----------------|--3----------------| 
------------------|--7----------------|--7----------------|-------------------| 
                                                             
-------------------|-------------------|-------------------| 
-------------------|-------------------|-------------------| 
--5----------------|--7----------------|--7----------------| 
--5----------------|--7----------------|--7----------------| 
--3----------------|--5----------------|--5----------------| 
-------------------|-------------------|-------------------| 
                                                                                
--------------------------|-------------------------|--------------------------| 
--------------------------|-------------------------|--------------------------| 
--------------------------|-------------------------|--5--5--------5-----4--7--| 
--2--2--------5-----0--2--|----2--------2-----2-----|--5--5--------5-----4--7--| 
--2--2--------5-----0--2--|----2--------2-----2-----|--3--3--3--3--3--3--2--5--| 
--0--0--0--0-----0--------|-------0--0-----0-----0--|--------------------------| 
                                                                                
-------------------------|--------------------------|-------------------------| 
-------------------------|--------------------------|-------------------------| 
----7--------7-----7-----|--------------------------|-------------------------| 
----7--------7-----7-----|--2--2--------5-----0--2--|----2--------2-----2-----| 
----5--5--5--5--5--5--5--|--2--2--------5-----0--2--|----2--------2-----2-----| 
-------------------------|--0--0--0--0-----0--------|-------0--0-----0-----0--|  
                                                                   
--------------------------|------------------|-------------------| 
--------------------------|------------------|-------------------| 
--5--5--------5-----4--7--|------------------|-------------------| 
--5--5--------5-----4--7--|------------------|--9----------------| 
--3--3--3--3--3--3--2--5--|------------------|--9----------------| 
--------------------------|------------------|--7----------------| 
                                                                   
-------------------|-------------------|-------------------------| 
-------------------|-------------------|-------------------------| 
-------------------|-------------------|-------------------------| 
--------------9----|--7----------------|--5--------5--------7----| 
--------------9----|--7----------------|--5--------5--------7----| 
--------------7----|--5----------------|--3--3--3--3--3--5--5----| 
                                                                  
-------------------|------------------|--------------------------| 
-------------------|------------------|--------------------------| 
-------------------|------------------|--------------------------| 
--9----------------|------------------|--7--------7--------7-----| 
--9----------------|------------------|--7--------7--------7-----| 
--7----------------|------------------|--5--5--5--5--5--5--5--5--| 
                                                                  
-------------------------|-------------------|------------------| 
-------------------------|-------------------|------------------| 
-------------------------|-------------------|------------------| 
--5--------5--------7----|--9----------------|------------------| 
--5--------5--------7----|--9----------------|------------------| 
--3--3--3--3--3--3--5----|--7----------------|------------------| 
                                                                               
-------------------|-------------------|-------------------|------------------| 
-------------------|-------------------|-------------------|------------------| 
-------------------|-------------------|-------------------|------------------| 
--7----------------|--5----------------|--9----------------|------------------| 
--7----------------|--5----------------|--9----------------|------------------| 
--5----------------|--3----------------|--7----------------|------------------| 
                                                                                
-------------------|-------------------|-------------------|------------------| 
-------------------|-------------------|-------------------|------------------| 
--7----------------|--2----------------|-------------------|------------------| 
--7----------------|--2----------------|--9----------------|------------------| 
--5----------------|--0----------------|--9----------------|------------------| 
-------------------|-------------------|--7----------------|------------------| 
                                                                                
-------------------|-------------------|-------------------|------------------| 
-------------------|-------------------|-------------------|------------------| 
-------------------|-------------------|-------------------|------------------| 
--7----------------|--5----------------|--9----------------|------------------| 
--7----------------|--5----------------|--9----------------|------------------| 
--5----------------|--3----------------|--7----------------|------------------| 
                                                                    
-------------------|-------------------|--------------------------| 
-------------------|-------------------|--------------------------| 
-------------------|--2----------------|--7-----------------------| 
--5----------------|--2----------------|--7-----------------------| 
--5----------------|--0----------------|--5--5--5--5--5--5--5--5--| 
--3----------------|-------------------|--------------------------| 
                                                      
--------------------------|--------------------------| 
--------------------------|--------------------------| 
--------------------------|--5-----------------------| 
--------------------------|--5-----------------------| 
--5--5--5--5--5--5--5--5--|--3--3--3--3--3--3--3--3--| 
--------------------------|--------------------------| 
                                                       
--------------------------|--------------------------| 
--------------------------|--------------------------| 
--------------------------|--7-----------------------| 
--------------5--5--2--2--|--7-----------------------| 
--3--3--3--3--5--5--0--0--|--5--5--5--5--5--5--5--5--| 
--------------3--3--------|--------------------------| 
                                                                     
--------------------------|--------------------|-------------------| 
--------------------------|--------------------|-------------------| 
--------------------------|--10----------------|--5----------------| 
--------------------------|--10----------------|--5----------------| 
--5--5--5--5--5--5--5--5--|--8-----------------|--3----------------| 
--------------------------|--------------------|-------------------| 
                                                       
--------------------------|--------------------------| 
--------------------------|--------------------------| 
--7-----------------------|--------------------------| 
--7-----------------------|--------------------------| 
--5--5--5--5--5--5--5--5--|--5--5--5--5--5--5--5--5--| 
--------------------------|--------------------------| 
                                                       
--------------------------|--------------------------| 
--------------------------|--------------------------| 
--5-----------------------|--------------------------| 
--5-----------------------|--------------5--5--2--2--| 
--3--3--3--3--3--3--3--3--|--3--3--3--3--5--5--0--0--| 
--------------------------|--------------3--3--------| 
                                                                           
--------------------------|--------------------------|-------------------| 
--------------------------|--------------------------|-------------------| 
--7-----------------------|--------------------------|--3----------------| 
--7-----------------------|--------------------------|--3----------------| 
--5--5--5--5--5--5--5--5--|--5--5--5--5--5--5--5--5--|--1----------------| 
--------------------------|--------------------------|-------------------| 
                                                             
-------------------|--------------------|------------------| 
-------------------|--------------------|------------------| 
--5----------------|--------------------|------------------| 
--5----------------|--2--2--------------|------------------| 
--3----------------|--2--2--------------|------------------| 
-------------------|--0--0--------------|------------------| 
                                                               
----------------------|------------------|--------------------| 
----------------------|------------------|--------------------| 
--5--5----------4--7--|------------------|--------------------| 
--5--5----------4--7--|------------------|--2--2--------------| 
--3--3----------2--5--|------------------|--2--2--------------| 
----------------------|------------------|--0--0--------------| 
                                                              
------------------|----------------------|------------------| 
------------------|----------------------|------------------| 
------------------|--5--5----------4--7--|------------------| 
------------------|--5--5----------4--7--|------------------| 
------------------|--3--3----------2--5--|------------------| 
------------------|----------------------|------------------| 
                                                                                 
-------------------------|-------------------------|---------------------------| 
-------------------------|-------------------------|---------------------------| 
-------------------------|-------------------------|--8--8--------8-----7--10--| 
--5--5--------3-------5--|----5--------5-----5-----|--8--8--------8-----7--10--| 
--5--5--------1-------5--|----5--------5-----5-----|--6--6--6--6--6--6--5--8---| 
--3--3--3--3-------1--3--|----3--3--3--3--3--3--3--|---------------------------| 
                                                        
----------------------------|-------------------------| 
----------------------------|-------------------------| 
----10--------10-----10-----|-------------------------| 
----10--------10-----10-----|--5--5--------3-------5--| 
----8---8--8--8---8--8---8--|--5--5--------1-------5--| 
----------------------------|--3--3--3--3-------1--3--| 
                                                     
-------------------------|---------------------------| 
-------------------------|---------------------------| 
-------------------------|--8--8--------8-----7--10--| 
----5--------5-----5-----|--8--8--------8-----7--10--| 
----5--------5-----5-----|--6--6--6--6--6--6--5--8---| 
----3--3--3--3--3--3--3--|---------------------------| 
                                                                                 
---------------------------|-------------------------|-------------------------| 
---------------------------|-------------------------|-------------------------| 
----10--------10-----10----|-------------------------|-------------------------| 
----10--------10-----10----|--5--5--------3-------5--|----5--------5-----5-----| 
----8---8--8--8---8--8-----|--5--5--------1-------5--|----5--------5-----5-----| 
---------------------------|--3--3--3--3-------1--3--|----3--3--3--3--3--3--3--| 
                                                           
---------------------------|----------------------------| 
---------------------------|----------------------------| 
--8--8--------8-----7--10--|----10--------10-----10-----| 
--8--8--------8-----7--10--|----10--------10-----10-----| 
--6--6--6--6--6--6--5--8---|----8---8--8--8---8--8---8--| 
---------------------------|----------------------------| 
                                                                             
-------------------------|-------------------------|------------------------| 
-------------------------|-------------------------|------------------------| 
-------------------------|-------------------------|--8--8------8----7--10--| 
--5--5--------3-------5--|----5--------5-----5-----|--8--8------8----7--10--| 
--5--5--------1-------5--|----5--------5-----5-----|--6--6------6----5--8---| 
--3--3--3--3-------1--3--|----3--3--3--3--3--3--3--|------------------------| 
                                                            
------------------|------------------|------------------|| 
------------------|------------------|------------------|| 
------------------|------------------|------------------|| 
------------------|------------------|------------------|| 
------------------|------------------|------------------|| 
------------------|------------------|------------------||
Composición de Cans / Dronjak
Colaboración y revisión:
  • Taino Vieira
54 vistas
    • ½ Tono
    • A
    • Bb
    • B
    • C
    • Db
    • D
    • Eb
    • E
    • F
    • F#
    • G
    • Ab
  • Agregar a la lista

    0 comentarios

    Ver todos los comentarios

    ¿Lograste tocar?

    1 Tocaron 0 Aún no

    ¡Graba un video tocando Riders of the Storm y envíanoslo!

    00:00 / 00:00
    Outros vídeos desta música
    Repetir Calidad Automático
    Outros vídeos desta música
    00:00 / 00:00
    Automático
    OK