Cifra Club

Lost without each other

Hanson

Cifrado: Principal (guitarra y guitarra eléctrica)
tono: E
Introdução:
|---------------------|
|---4--5-5-5--7--5-4-5|
|---4--4-4-4--4--4-4-4|
|---------------------|
|---------------------|
|---------------------|
|---------------------|
                           (2x)
|-----------------------------------------|
|-----------------------------------------|
|-----------------------------------------|
|--8--9--9--11-11--8-8--9-----------------|
|--6--7--7--9--9---6-6--7----7--7--9--9---|
|-----------------------------5--5--7--7--|

Estrofe 1:
|------------------------------|
|------------------------------|
|---------Pausa----------------|
|------------------------------|

|------------------|-------------------|
|------------------|-------------------|
|----9---9---6---6-|----9---9---6---8--|
|--9---9---7---7---|--9---9---7-----9--|
|------------------|-------------------|
|------------------|-------------------|

Pré-refrão:                                           (2x)
|-----------------------------------|
|-----------------------------------|
|---9---9---9---9---6---6---8---8---|
|-9---9---9---9---7---7---9---9-----|
|-----------------------------------|
|-----------------------------------|

Refrão:                                                             (5x)
|-----------------------------------------|
|-----------------------------------------|
|-----------------------------------------|
|--8--9--9--8--11--8-8--9-----------------|
|--6--7--7--6--9---6-6--7-----7--7--9--9--|
|-----------------------------5--5--7--7--|
Estrofe 2:
|------------------------------------|
|------------------------------------|
|----9---9---6---6---8---8---6---8---|
|--9---9---7---7---9---9---7---9-----|
|------------------------------------|
|------------------------------------|

Estrofe 3:                  (2x)
|-------------------|
|-------------------|
|-------------------|
|--9-9-9-9----------|
|--7-7-7-7-7-7-9-9--|
|----------5-5-7-7--|

[Intro:] E A B

E                              A
I ran into your best friend today
        B                     E
Twelve nights since you ran away
                                       A          B
I asked about you and she said, can't say, can't say
E                                    A
I'm feeling lonely and it seems to stay
              B                      E
It's been a while since I felt that way
                                          A        B
Well, I can tell you there's no room to play this game

C#m                A    B
All I know is what I'm missing
C#m                       A
What I'm missing is your kissing
         B
Are you listening

Don't go, don't go telling me you're alright
There's no room for getting uptight
Don't go saying that you're OK
When you're lonely
Baby, don't go telling me we're over
When you know you're my one and only lover
And I won't go saying that we're OK when we're
Lost without each other
'Cause we're lost without each other
'Cause we're lost without each other

I didn't mean to start the last big fight
You never should have hung up that night
All I want to do is make things right
Make it right
Listen, with all the choices that we chose to make
And all the promises we chose to break
We were busy making big mistakes, yesterday

C#m
I can tell you one thing
           A            B
We're not better on our own
C#m                           A
I'm tired of running from my feelings
         B
Are you listening
Composición de Hélder Vasconcelos / Taylor Hanson / Zac Hanson
Colaboración y revisión:
  • Sid Ferreira
  • Danilo Costa
46 vistas
    • ½ Tono
    • A
    • Bb
    • B
    • C
    • Db
    • D
    • Eb
    • E
    • F
    • F#
    • G
    • Ab
  • Agregar a la lista

    0 comentarios

    Ver todos los comentarios

    ¿Lograste tocar?

    0 Tocaron 0 Aún no

    ¡Graba un video tocando Lost without each other y envíanoslo!

    00:00 / 00:00
    Outros vídeos desta música
    Repetir Calidad Automático
    Outros vídeos desta música
    00:00 / 00:00
    Automático
    OK