Cifra Club

Runaway Run

Hanson

Cifrado: Principal (guitarra y guitarra eléctrica)
tono: C
E|---8b8b8b8b8b8b8/10------------7-8-10-12-10-8-7-8----
B|--------------------------8-10-----------------------
G|--------------------/9-10----------------------------
D|-----------------------------------------------------
A|-----------------------------------------------------
E|-----------------------------------------------------

E|-----------------------------------------------------
B|-10b-8--10b-8--------------5b------------------------
G|-------------------5---5-7-----7-5---5---------------
D|---------------5h7---7-------------7---7-5---5-------
A|-------------------------------------------7---7-5---
E|---------------------------------------------------8-


[Intro:] C F G

G      C            F
And I waited for you
G      C            F G
And I waited for you

        C                           F  G
Just a picture and a feeling and a face
          C                                 F  G
How could I forget your touch your warm embrace
          C                                   F
And the shoes you wore with long black satin lace
        G              C  F G
As you walked into my mind

As I walked into this old forgotten hall
Just one look and I began to fall
Wish I could frame you and this feeling on the wall
To stare at 'til there is no time

Am          F G     Am
And I waited for you
           F            G           Am
Just hoping that you'd come back to me
            F     G
And I waited for you

 C         F
Run, run, runaway run
                      G
Maybe someday I will find someone too
 C         F
Run, run, runaway
                 G
Maybe some day, maybe some day

From a distance watched the flowers brush your cheek
As you read the words I wrote I couldn't speak
But now I lay here broken heart and blistered feet
As you're spinning 'round my mind

And I waited for you
Dreaming of you coming to me
And I waited for you

F
When you weep you can know that it's all right
C/E
As you sleep I'll just follow your door light
Dm                                       G
We can talk just as long as you hold on tight
Just one breath is a million sighs

I can tell ever breath that you're breathing
I can feel every thought that you're thinking
We can talk it's a thousand years gone by you and I

Solo: F G Em F G Em F G C
00:00 / 00:00
Otros videos de esta canción
Repetir
Otros videos de esta canción
Composición de Hélder Vasconcelos
103 exhibiciones
    • ½ Tono
    • A
    • Bb
    • B
    • C
    • Db
    • D
    • Eb
    • E
    • F
    • F#
    • G
    • Ab
  • Agregar a la lista
    00:00 / 00:00
    OK