Cifra Club

A Mensagem Da Cruz

Harpa Cristã

Cifrado: Principal (guitarra y guitarra eléctrica)
Selo Cifra Club: esta cifra foi revisada para atender aos critérios oficiais da nossa Equipe de Qualidade.
tono: Bb (forma dos acordes no tom de A) Capotraste na 1ª casa
[Intro] A  A7  D 
        A  E  A  E

[Tab - Intro]

Parte 1 de 2
        A         A7        D
E|------9---9-9---9--10--9------------------|
B|---10---------------------7---------------|
G|-9----------------------------------------|
D|------------------------------------------|
A|------------------------------------------|
E|------------------------------------------|

Parte 2 de 2
         A         E      A    E
E|-10-10-9---7---------7--------------------|
B|-------------10----9----10----------------|
G|-----------------9------------------------|
D|------------------------------------------|
A|------------------------------------------|
E|------------------------------------------|

[Primeira Parte]

       A         A7          D     Bm
Rude cruz se erigiu! Dela o dia fugiu
         E                  A  E  
Como emblema de vergonha e dor
        A            A7          D      Bm
Mas contemplo essa cruz, porque nela Jesus
       E                A
Deu a vida por mim pecador

[Refrão]

        E                   A  A7  
Sim, eu amo a mensagem da cruz
       D                  A  E
Té morrer eu a vou proclamar
     A         A7         D    
Levarei eu também minha cruz
       A      E      A  E
Té por uma coroa trocar

[Segunda Parte]

          A         A7  
Desde a glória dos céus
      D        Bm     
O Cordeiro de Deus
       E                   A  E
Ao Calvário humilhante baixou
       A            A7                   
Essa cruz tem para mim
     D         Bm
Atrativos sem fim
        E                A 
Porque nela Jesus me salvou

[Refrão]

        E                   A  A7  
Sim, eu amo a mensagem da cruz
       D                  A  E
Té morrer eu a vou proclamar
     A         A7         D    
Levarei eu também minha cruz
       A      E      A  E
Té por uma coroa trocar

[Terceira Parte]

        A       A7
Nessa cruz padeceu
       D         Bm
E por mim já morreu
       E                     A  E
Meu Jesus, para dar-me o perdão
          A         A7       
E eu me alegro na cruz
      D           Bm
Dela vem graça e luz
      E              A
Para minha santificação

[Refrão]

        E                   A  A7  
Sim, eu amo a mensagem da cruz
       D                  A  E
Té morrer eu a vou proclamar
     A         A7         D    
Levarei eu também minha cruz
       A      E      A  E
Té por uma coroa trocar

[Quarta Parte]

      A        A7
Eu aqui com Jesus
      D         Bm
A vergonha da cruz
       E                 A  E
Quero sempre levar e sofrer
        A         A7         
Cristo vem me buscar
      D        Bm
E com Ele, no lar
     E                      A
Uma parte da glória hei de ter

[Refrão]

        E                   A  A7  
Sim, eu amo a mensagem da cruz
       D                  A  E
Té morrer eu a vou proclamar
     A         A7         D    
Levarei eu também minha cruz
       A      E      A  E
Té por uma coroa trocar

[Final] A  A7  D 
        A  E  A  

[Tab - Final]

Parte 1 de 2
        A         A7        D
E|------9---9-9---9--10--9------------------|
B|---10---------------------7---------------|
G|-9----------------------------------------|
D|------------------------------------------|
A|------------------------------------------|
E|------------------------------------------|

Parte 2 de 2
         A         E      A   
E|-10-10-9---7---------7--------------------|
B|-------------10----9----10----------------|
G|-----------------9------------------------|
D|------------------------------------------|
A|------------------------------------------|
E|------------------------------------------|
Otros videos de esta canción
    7.308 exhibiciones
    • Simplificar cifrado
      • ½ Tono
      • A
      • Bb
      • B
      • C
      • Db
      • D
      • Eb
      • E
      • F
      • F#
      • G
      • Ab
    • Agregar a la lista

    Afinação da cifra

    Afinador online

      Ops (: Contenido disponible solo en portugués.
      OK