Cifra Club

Bíblia Sagrada

Harpa Cristã

Tablatura: Principal (guitarra)
tono: E
E|---------4-|-7-------5-|-10--5-----|-----------|-----------|---------7-|
B|-7---10--6-|-6-------7-|-7---7---7-|-8-------8-|-5---4---5-|-8-------8-|
G|-7---11--4-|-7-------7-|-7---7---7-|-6-------6-|-6---5---6-|-6---------|
D|-0---0---0-|-0-------0-|-0-------7-|-7-------7-|-7---7---7-|-7-------7-|
A|-12--12----|-----------|-----5---5-|-7-------0-|-0---0---0-|-0-------0-|
E|-----------|-----------|-----------|-----------|-----------|-----------|

E|-7---5---0-|-5--------|-----5---4-|-7-------5-|-----------|-7-------7-|
B|-8---7---8-|-7--------|-7---7---6-|-6-------7-|-7---5---3-|-3-------3-|
G|-----------|----------|-7-------4-|-7-------7-|-7---5---5-|---------4-|
D|-7---7---7-|-7--------|-7---7-----|-----------|-7---5---4-|-5---------|
A|-0-------4-|-5--------|-5---5---5-|-5-------5-|-----5---5-|-----------|
E|-----7-----|----------|-----------|-----------|-8---------|-3-------3-|

E|---------4-|-7----------|-7---10--9-|-10-------|----------|
B|---------6-|-7-------10-|-8---8---8-|-7--------|----------|
G|---------4-|-7-------11-|-----------|----------|----------|
D|-----------|---------7--|-7---7---7-|-7--------|----------|
A|-----------|-0-------0--|-0---0---0-|----------|----------|
E|-4---4---4-|------------|-----------|-10-------|----------|

Colaboración y revision:
  • Helon Oliveira
134 reproducciones
    • ½ Tono
    • A
    • Bb
    • B
    • C
    • Db
    • D
    • Eb
    • E
    • F
    • F#
    • G
    • Ab
  • Adicionar à lista

    0 comentarios

    Ver todos os comentários
    00:00 / 00:00
    outros vídeos desta música
    repetir qualidade Automático
    Outros vídeos desta música
    00:00 / 00:00
    Automático
    OK