Cifra Club

Espírito, Enche a Minha Vida

Harpa Cristã

Cifrado: Principal (guitarra y guitarra eléctrica)
Selo Cifra Club: esta cifra foi revisada para atender aos critérios oficiais da nossa Equipe de Qualidade.
tono: D
[Intro] D  Gm/D  D  Gm/D  

[Tab - Intro]

Parte 1 de 2
   D         Gm/D        D      
E|-------2---3---3-------------2------------|
B|-----3---3-3-----3---------3---3----------|
G|---2-------3-3-----3-0---2----------------|
D|-0---------0-----------0------------------|
A|------------------------------------------|
E|------------------------------------------|

Parte 2 de 2
   Gm/D     
E|-3----3-----------------------------------|
B|-3------3---------------------------------|
G|-3--3-----3-0-----------------------------|
D|-0----------------------------------------|
A|------------------------------------------|
E|------------------------------------------|

[Primeira Parte] 

[Tab - Primeira Parte]

Parte 1 de 4
   D             D/F#          G         
E|-------2-----0----------------------------|
B|-----3---3-----------3-----3-------3------|
G|---2-------2-------2---2---------0---0----|
D|-0---------------0-------0-----0-------0--|
A|------------------------------------------|
E|---------------2-------------3------------|

Parte 2 de 4
     A       A#º     Bm            F#m       
E|-------------------------2-----2---------|
B|-3-------2-------2-----3---3-----------2-|
G|-------2-------0-----4-------4-------2---|
D|-----2-------2---------------------4-----|
A|---0-------1-------2---------------------|
E|---------------------------------2-------|

Parte 3 de 4 
         G             D/F#    Dm/F       
E|-----------------------------------------|
B|-----2-------3-----3-------3-------3-----|
G|-2---------0---0---------2-------2-------|
D|---4-----0-------0-----0-------0---------|
A|-----------------------------------------|
E|-------3-------------2-------1-----------|

Parte 4 de 4 
   Em D/F# G  A4     A       
E|------------------------------------------|
B|-0---3---3---3-----2----------------------|
G|-0---2---0---2-----2----------------------|
D|-1---0---0---2-----2----------------------|
A|-------------0-----0----------------------|
E|-0---2---3--------------------------------|

   D   D/F#  G              A A#º
Espírito     enche a minha vida
Bm           F#m
Enche-me do teu poder
 G              D/F#   Dm/F  
Pois de ti eu quero ser
   Em  D/F# G A4  A        D  
Espí--ri---to enche o meu ser

( D Gm/D D Gm/D )

[Primeira Parte]

   D   D/F#  G              A A#º
Espírito     enche a minha vida
Bm           F#m
Enche-me do teu poder
 G              D/F#   Dm/F  
Pois de ti eu quero ser
   Em  D/F# G A4  A        D Am D7 
Espí--ri---to enche o meu ser

[Refrão] 

G          A             D F#7  Bm
As minhas mãos eu quero levan--tar
G        A         Bm
E em louvor te adorar
 G       A            D  F#7 Bm
Meu coração eu quero derra--mar
  Em       A4 A    D  Am  D7
Diante do teu   altar

[Refrão Final] 

G          A             D F#7  Bm
As minhas mãos eu quero levan--tar
G        A         Bm
E em louvor te adorar
 G       A            D  F#7 Bm
Meu coração eu quero derra--mar
  Em       A4 A    D  Bm
Diante do teu   altar
  Em       A4 A    D   F#7 Bm
Diante do teu   altar
  Em       A4 A    D 
Diante do teu   altar

[Final] D  Gm/D  D  Gm/D  D
Otros videos de esta canción
    6.670 exhibiciones
    • Simplificar cifrado
      • ½ Tono
      • A
      • Bb
      • B
      • C
      • Db
      • D
      • Eb
      • E
      • F
      • F#
      • G
      • Ab
    • Agregar a la lista

    Afinação da cifra

    Afinador online

      Ops (: Contenido disponible solo en portugués.
      OK