Cifra Club

Pode Salvar

Harpa Cristã

Cifrado: Principal (guitarra y guitarra eléctrica)
Selo Cifra Club: esta cifra foi revisada para atender aos critérios oficiais da nossa Equipe de Qualidade.
tono: A
E|-2-2-2-2-2-2-3----2---|-0-0-0-3-3-3-2--------|-5-5-5-5-5-5-7----5---|
B|-3-3-3-3-3-3-3----3---|-2-2-2-5-5-5-3--------|-7-7-7-7--------------|
G|-2-2-2-2-2-2-4----2---|-2-2-2-2-2-2-2--------|-7-6-4---6-7-7----7---|
D|-0-0-0-0-0-0-0----0---|-------------0--------|-0-0-0-7-7-7-5----7---|
A|----------------------|-0-0-0-4-4-4----------|-------5-7-9------9---|
E|----------------------|----------------------|----------------------|

E|---5-9--12-10-------------|
B|-5-5----------12-10-------|
G|-6-6-9--9--9--9--9--------|
D|-7---------9--12-11-------|
A|-7-7-12-11-------12-------|
E|-----12-12-12-12----------|

E|--------------------------14-12-10---------------10-9-----|
B|--------1015-------15--------------12-------12---12-10-12-|
G|-----11---11-11-11-11--------------12-12-12-12---0--0--12-|
D|--12------0--0--0--0---------------12-12-12-12---12-12-12-|
A|----------12-12-12-12--------------10-10-10-10---------10-|
E|----------------------------------------------------------|

E|------10--2--2-0---0-------------2----|
B|-10-------3--3-3-3-2----------3----10-|
G|-11---11--2--2-0---2-----2------------|
D|-12--------------4-----2--------------|
A|------12--5--5-5-5-0-4----------------|
E|-10---10------------------------------|

E|-----------------14-12-10---------------10-9-----|
B|-15-------15--------------12-------12---12-10-12-|
G|-11-11-11-11--------------12-12-12-12---0--0--12-|
D|-0--0--0--0---------------12-12-12-12---12-12-12-|
A|-12-12-12-12--------------10-10-10-10---------10-|
E|-------------------------------------------------|

E|--------------------------------------|
B|-10---10--10-10-12-14-15--------------|
G|-11---11--11-12-12-12-11--------------|
D|-12---12--12-11-11----0---------------|
A|-12---12--12-12-12-12-12--------------|
E|--------------------------------------|

Otros videos de esta canción
    1.669 exhibiciones
      • ½ Tono
      • A
      • Bb
      • B
      • C
      • Db
      • D
      • Eb
      • E
      • F
      • F#
      • G
      • Ab
    • Agregar a la lista

    Afinación de cifrado

    Afinador online

      OK