Cifra Club

As It Was

Harry Styles

Cifrado: Principal (guitarra y guitarra eléctrica)
tono: D
[Intro] D2  Bm7(11)  E  A2
 
[Tab - Intro] 

Parte 1 de 4
   D2
E|-------9------------------------12-12-9---|
B|-10-12---12---12---12---12---10-----------|
G|------------------------------------------|
D|------------------------------------------|
A|------------------------------------------|
E|------------------------------------------|

Parte 2 de 4
   Bm7(11)
E|-----x-------x-------x--------x-----------|
B|-----2-------x-------x--------x-----------|
G|-2h4-x-4-x-4-x-4-x-4-x-2-4----2-----------|
D|-4---x-------x-------x--------x-----------|
A|-2---x-------2-------2--------x-----------|
E|-----x-------x-------x--------x-----------|

Parte 3 de 4
   E
E|-----x-------x-------x--------x-----------|
B|-----2-------x-------x---5-5--2-----------|
G|-2h4-x-4-x-4-x-4-x-4-x-2------x-----------|
D|-2---x-------x-------x--------x-----------|
A|-2---2-------2-------2--------x-----------|
E|-0---x-------x-------x--------x-----------|

Parte 4 de 4
   A2
E|-----x-------x-------x--------x-----------|
B|-----2-------x-------x--------x-----------|
G|-2h4-x-4-x-4-x-4-x-4-x-2-4----2-----------|
D|-2---x-------x-------x--------X-----------|
A|-0---x-------x-------x--------x-----------|
E|-----x-------x-------x--------x-----------|

[Primeira Parte]

[Tab - Primeira Parte]

Parte 1 de 4 
   D2
E|-------X-----------x-----------x---------x|
B|-3-----3--3--------x--3--------x--3------3|
G|-2-----2--------2--x--------2--x-------2-2|
D|-0-----0-----0-----0-----0-----0-----0---0|
A|-------x-----------x-----------x---------x|
E|-------x-----------x-----------x---------x|

Parte 2 de 4
   Bm7(11)
E|-------X-----------x-----------x---------x|
B|-3-----3--3--------x--3--------x--3------3|
G|-2-----2--------2--x--------2--x-------2-2|
D|-0-----0-----------0-----------x---------0|
A|-2-----2-----2-----2-----2-----2-----2---2|
E|-------x-----------x-----------x---------x|

Parte 3 de 4
   E
E|-------X-----------X-----------X---------X|
B|-0-----0--0--------X--0--------X--0------0|
G|-1-----1--------1--X--------1--X-------1-1|
D|-2-----2-----------X-----------X---------2|
A|-2-----2-----2-----x-----2-----x-----2---2|
E|-0-----0-----0-----0-----0-----0-----2---0|

Parte 4 de 4
   A2
E|-------X-----------X-----------X---------X|
B|-0-----0--0--------X--0--------X--0------0|
G|-2-----2--------2--X--------2--X-------2-2|
D|-2-----2-----------x-----------x---------2|
A|-0-----0-----0-----0-----0-----0-----0---0|
E|-------X-----------X-----------X---------X|

 D2
Holdin' me back
           Bm7(11)
Gravity's holdin' me back
               E
I want you to hold out 

The palm of your hand
              A2 
Why don't we leave it at that?
 D2
Nothin' to say
                Bm7(11)
And everything gets in the way
              E
Seems you cannot be replaced
            A2
And I'm the one who will stay, oh, oh, oh

[Refrão]

D7M(9)          Bm7(9)          E 
       In this world, it's just us
      A7M                         D7M(9)  
You know it's not the same as it was
         Bm7(9)          E 
In this world, it's just us
      A7M                         
You know it's not the same 

[Passagem]

       D7M(9)     Bm7(9)     E            
As it was, as it was, as it was
      A7M
You know it's not the same

[Tab - Passagem]

Parte 1 de 4
   D7M(9)  
E|------------------------------X-----------|
B|-----2-------------------5-5--2-----------|
G|-2h4-4-4---4---4---4---2------2-----------|
D|-0---0-------0-------0--------0-----------|
A|-----x-------x-------x--------X-----------|
E|-----x-------x-------x--------X-----------|

Parte 2 de 4
   Bm7(9)
E|-----x-------x-------x--------X-----------|
B|-----2-------x-------x--------X-----------|
G|-2h4-4-4---4-4-4---4-4-2-4----2-----------|
D|-4---x-------4-------4--------4-----------|
A|-2---x-------2-------2--------2-----------|
E|-----x-------x-------x--------X-----------|

Parte 3 de 4
   E
E|-----x-------x-------x--------X-----------|
B|-----2-------x-------X---5-5--2-----------|
G|-2h4-x-4---4-x-4---4-x-2------2-----------|
D|-2---x-------2-------2--------2-----------|
A|-2---x-------2-------2--------2-----------|
E|-0---x-------0-------0--------0-----------|

Parte 4 de 4
   A7M
E|-----x-------x-------x--------x-----------|
B|-----2-------x-------x--------x-----------|
G|-2h4-x-4---4-x-4---4-x-2-4----2-----------|
D|-2---x-------2-------2--------2-----------|
A|-0---x-------0-------0--------0-----------|
E|-----x-------x-------x--------x-----------|

[Segunda Parte]

D2
Answer the phone
               Bm7(11)     
Harry, you're no good alone
             E
Why are you sitting at home on the floor?
              A2
What kind of pills are you on?
 D2
Ringin' the bell
              Bm7(11)
And nobody's coming to help
            E
Your daddy lives by himself
         A2   
He just wants to know that you're well, oh, oh, oh

[Refrão]

D7M(9)          Bm7(9)          E 
       In this world, it's just us
      A7M                         D7M(9)  
You know it's not the same as it was
         Bm7(9)          E 
In this world, it's just us
      A7M                         
You know it's not the same 

[Passagem]

       D7M(9)     Bm7(9)     E            
As it was, as it was, as it was
      A7M
You know it's not the same

[Terceira Parte]

 D2
Go home, get ahead, light-speed internet
Bm7(11) 
I don't wanna talk about the way that it was
 E
Leave America, two kids follow her
A2
I don't wanna talk about who's doin' it first

[Refrão Final]

D7M(9)  Bm7(9)  E        A7M  
                  As it was
      D7M(9)                      Bm7(9)   
You know it's not the same as it was
       E          A7M  
As it was, as it was

[Tab - Refrão Final]

Parte 1 de 4
   D7M(9)   
E|-------9------------------------12-12-9---|
B|-10-12---12---12---12---12---10-----------|
G|------------------------------------------|
D|------------------------------------------|
A|------------------------------------------|
E|------------------------------------------|

Parte 2 de 4
   Bm7(9)
E|-----x-------x-------x--------x-----------|
B|-----2-------x-------x--------x-----------|
G|-2h4-x-4-x-4-x-4-x-4-x-2-4----2-----------|
D|-4---x-------x-------x--------x-----------|
A|-2---x-------2-------2--------x-----------|
E|-----x-------x-------x--------x-----------|

Parte 3 de 4
   E
E|-----x-------x-------x--------x-----------|
B|-----2-------x-------x---5-5--2-----------|
G|-2h4-x-4-x-4-x-4-x-4-x-2------x-----------|
D|-2---x-------x-------x--------x-----------|
A|-2---2-------2-------2--------x-----------|
E|-0---x-------x-------x--------x-----------|

Parte 4 de 4
   A7M
E|-----x-------x-------x--------x-----------|
B|-----2-------x-------x--------x-----------|
G|-2h4-x-4-x-4-x-4-x-4-x-2-4----2-----------|
D|-2---x-------x-------x--------X-----------|
A|-0---x-------x-------x--------x-----------|
E|-----x-------x-------x--------x-----------|

Parte 1 de 4 - Variação
   D7M(9)  
E|------------------------------X-----------|
B|-----2-------------------5-5--2-----------|
G|-2h4-4-4---4---4---4---2------2-----------|
D|-0---0-------0-------0--------0-----------|
A|-----x-------x-------x--------X-----------|
E|-----x-------x-------x--------X-----------|

[Tab - Passagem Final]

E|-------9------------------------12-12-9---|
B|-10-12---12---12---12---12---10-----------|
G|------------------------------------------|
D|------------------------------------------|
A|------------------------------------------|
E|------------------------------------------|
00:00 / 00:00
Otros videos de esta canción
Repetir
Otros videos de esta canción
Composición de Harry Styles / Kid Harpoon / Tyler Johnson
Colaboración y revisión:
  • Tarsius Lima
  • Lucas Kappaun
40.354 exhibiciones
  • Simplificar cifrado
    • ½ Tono
    • A
    • Bb
    • B
    • C
    • Db
    • D
    • Eb
    • E
    • F
    • F#
    • G
    • Ab
  • Agregar a la lista
    00:00 / 00:00
    Capítulos
    • Apresentação
    • Tocando a Música
    • Acordes Introdução
    • Ensinando Introdução
    • Ensinando Ritmo Básico
    • Dicas Primeira Parte
    • Ensinando Primeira Parte
    • Acordes Refrão
    • Dicas Refrão
    • Ensinando Refrão
    • Dicas Repetições
    • Ensinando Final
    • Encerramento
    OK