Cifra Club

Cherry

Harry Styles

Cifrado: Principal (guitarra y guitarra eléctrica)
tono: G (con acordes en la forma de C) Capotraste en 7ª casa
   C
E|-3---------3-----0---------0-----|
B|---------------------------------|
G|-----0-------0-------0-------0---|
D|---------------------------------|
A|-3-------3-------3-------3-------|
E|---------------------------------|

   C
E|-----------0---------------------|
B|-3---------------1---------1-----|
G|-----0-------0-------0-------0---|
D|---------------------------------|
A|-3-------3-------3-------3-------|
E|---------------------------------|

   C
E|-3---------3-----0---------0-----|
B|---------------------------------|
G|-----0-------0-------0-------0---|
D|---------------------------------|
A|-3-------3-------3-------3-------|
E|---------------------------------|

   C                        C/B
E|-----------0---------------------|
B|-3---------------1-----------1---|
G|-----0-------0-------0-----------|
D|---------------------------------|
A|-3-------3-------3-------2-------|
E|---------------------------------|

   Am7
E|-3---------3-----0---------0-----|
B|---------------------------------|
G|-----0-------0-------0-------0---|
D|---------------------------------|
A|-0-------0-------0-------0-------|
E|---------------------------------|

   Am7
E|-----------0---------------------|
B|-3---------------1---------1-----|
G|-----0-------0-------0-------0---|
D|---------------------------------|
A|-0-------0-------0-------0-------|
E|---------------------------------|

   F7M
E|-3---------3-----0---------0-----|
B|---------------------------------|
G|---------------------------------|
D|-----2-------2-------2-------2---|
A|-0-------0-------0-------0-------|
E|---------------------------------|

   F7M
E|-----------0---------------------|
B|-3---------------1---------1-----|
G|-----2-------2-------2-------2---|
D|-3-------3-------3-------3-------|
A|---------------------------------|
E|---------------------------------|

C
Don't you call him baby
C
We're not talking lately
Am7                                       F7M
Don't you call him what you used to call me
C                                           Am7                       
I, I confess I can tell that you are at your best
                           F7M
I'm selfish, so I'm hating it
C                                              Am7
I noticed that there's a piece of you in how I dress
                   F7M
Take it as a compliment
C                      
Don't you call him baby
C
We're not talking lately
Am7                                        Famj7
Don't you call him what you used to call me
C
I, I just miss
                                 Am7                      
I just miss your accent and your friends
                              Famj7
Did you know I still talk to them?
G                               F   C/E      Dm
Does he take you walking 'round his parents' gallery?
C
Don't you call him baby
C
We're not talking lately
Am7                                       Fm7
Don't you call him what you used to call me
C
Don't you call him baby (ooh, ooh)
C
We're not talking lately
Am7                                       Fm7
Don't you call him what you used to call me

Coucou! Tu dors?

Oh, j'suis désolée

Bah non

Nan, c'est pas important

Bon allez, on a été à la plage

Et maintenant on

Parfait! Harry
00:00 / 00:00
Otros videos de esta canción
Repetir
Otros videos de esta canción
Composición de Harry Styles / Jeff Bhasker / Kid Harpoon / Sammy Witte / Tyler Johnson
Colaboración y revisión:
  • Leonor Raposo
  • Bernardo PP
  • Barbara Smarrito
15.176 vistas
    • ½ Tono
    • A
    • Bb
    • B
    • C
    • Db
    • D
    • Eb
    • E
    • F
    • F#
    • G
    • Ab
  • Agregar a la lista

    0 comentarios

    Ver todos los comentarios

    ¿Lograste tocar?

    18 Tocaron 4 Aún no

    ¡Graba un video tocando Cherry y envíanoslo!

    00:00 / 00:00
    OK