Cifra Club

Two Ghosts

Harry Styles

Cifrado: Principal (guitarra y guitarra eléctrica)
tono: E
       E                                F#m
E|-----------------------4/7~---------------------------------4/7--|
B|-------------------5------------------------------------5--------|
G|-----------------------------------------------------------------|
D|-----------------------------------------------------------------|
A|-----------------------------------------------------------------|
E|-----------------------------------------------------------------|
       G#m                             F#m
e|7/9\7~-------------------4/7---------------------5p4-------------|
B|----------------------5-------------------------------- 5b7r5----|
G|-----------------------------------------------------------------|
D|-----------------------------------------------------------------|
A|-----------------------------------------------------------------|
E|-----------------------------------------------------------------|

E
Same lips red, same eyes blue
F#m
Same white shirt, couple more tattoos
G#m                               F#m
     But it's not you and it's not me
E
Tastes so sweet, looks so real
F#m
Sounds like something that I used to feel
G#m                          F#m
     But I can't touch what I see

      A                 E
We're not who we used to be
      A                 E
We're not who we used to be
           C#m        B          A        G#m     F#m
We're just two ghosts standing in the place of you and me
C#m7       B          A                     E
Trying to remember how it feels to have a heartbeat

( F#m  G#m  F#m )

E
The fridge light washes this room white
F#m
Moon dances over your good side
G#m                        F#m
    This was all we used to need
E
Tongue-tied like we've never known
F#m
Telling those stories we already told
G#m                                    F#m
    'Cause we don't say what we really mean

[Refrão]

      A                  E
We're not who we used to be
      A                  E
We're not who we used to be
           C#m        B            A         G#m      F#m
We're just two ghosts standing in the place of you and me
      A                  E
We're not who we used to be
      A                  E
We're not who we used to be
           C#m        B        A              G#m F#m
We're just two ghosts swimming in a glass half empty
C#m       B              A                    E
Trying to remember how it feels to have a heartbeat

( E  G#m  Bm  F#m )

[Solo]

E|----------------------------------------------------------------|
B|/5~-----5/7~------7/9-7-5-5/7----7/9-7-5------------------------|
G|-----------------------------------------4/6~---------6-4/6-4/6-|
D|----------------------------------------------------------------|
A|----------------------------------------------------------------|
E|----------------------------------------------------------------|

E|----------------------------------------------------------------|
B|/5~-----5/7~------7/9-7-5-5/7----7/9-7-5------------------------|
G|-----------------------------------------4/6~-------------------|
D|----------------------------------------------------------------|
A|----------------------------------------------------------------|
E|----------------------------------------------------------------|

[Refrão]

      A                  E
We're not who we used to be
      A                  E
We're not who we used to be
           C#m        B              A        G#m      F#m
We're just two ghosts standing in the place of you and me
      A                  E
We're not who we used to be
      A                  E
We don't see what we used to see
           C#m        B            A          G#m  F#m
We're just two ghosts swimming in a glass half empty
C#m       B             A                    E
Trying to remember how it feels to have a heartbeat

( F#m  G#m  F#m )

[Final]

F#m                                                E     F#m    G#m
     Trying to remember how it feels to have a heartbeat
F#m                                                          E
     I'm just trying to remember how it feels to have a heartbeat
Composición de Harry Styles / John Ryan / Julian Bunetta / Mitch Rowland / Tyler Johnson
Colaboración y revisión:
8.544 vistas
    • ½ Tono
    • A
    • Bb
    • B
    • C
    • Db
    • D
    • Eb
    • E
    • F
    • F#
    • G
    • Ab
  • Agregar a la lista

    0 comentarios

    Ver todos los comentarios

    ¿Lograste tocar?

    34 Tocaron 3 Aún no

    ¡Graba un video tocando Two Ghosts y envíanoslo!

    00:00 / 00:00
    Outros vídeos desta música
    Repetir Calidad Automático
    Outros vídeos desta música
    00:00 / 00:00
    Automático
    OK