Cifra Club

All About Us

He Is We

Cifrado: Principal (guitarra y guitarra eléctrica)
tono: E (con acordes en la forma de G) Capotraste en 9ª casa
Intro:
  
      G                                                          D
E|---------------3---------------3----------------2-------------------2--|
B|-------3---------------3----------------3-----------------3------------|
G|-----------------------------------------------------------------------|
D|-----------------------------------0---------0-------0---------0-------|
A|-----------------------------------------------------------------------|
E|---3-------3-------3-------3-------------------------------------------|
                   D6/B                                     D
E|---------------0------------------------------------2-----------------2--|
B|-------3---------------3----------3---------3----------------3-----------|
G|-------------------------------------------------------------------------|
D|----------------------------0h2--------0--------0-------0--------0-------|
A|---2-------2-------3-----------------------------------------------------|
E|-------------------------------------------------------------------------|

Intro: G  D  Cadd9  D

Take my hand, I'll teach you to dance.
I'll spin you around, won't let you fall down.                    
Would you let me lead, you can step on my feet.          
Give it a try, it'll be alright.

Em7
The room's hush, hush,
G
And now's our moment.
Cadd9
Take it in feel it all and hold it.
Em7              G
Eyes on you, eyes on me.
D
We're doing this right.

G
Cause lovers dance when they're feeling in love.
D
Spotlight shinning, it's all about us.
Cadd9                   D
It's oh, oh, oh, oh, all about uh, uh, uh, uh, us.
G
And every heart in the room will melt,
D
This is a feeling I've never felt but,
Cadd9             D
It's oh, oh, all about us.

G            D
Suddenly, I'm feeling brave.
Cadd9
Don't know what's got into me,
        D
Why I feel this way.
G               D
Can we dance, real slow?
Cadd9             D
Can I hold you, real close?D
Em7
The room's hush, hush,
G
And now's our moment.
Cadd9
Take it in feel it all and hold it.
Em7              G
Eyes on you, eyes on me.
D
We're doing this right.

G
Cause lovers dance when they're feeling in love.
D
Spotlight shinning, it's all about us.
Cadd9                   D
It's oh, oh, oh, oh, all about uh, uh, uh, uh, us.
G
And every heart in the room will melt,
D
This is a feeling I've never felt but,
Cadd9             D
It's oh, oh, all about us.

Em7
Do you hear that love?
Cadd9
They're playing our song.
G
Do you think we're ready?
Cadd9
Oh I'm really feeling it.
Em7                   Cadd9
Do you hear that love?
G
Do you hear that love?

Em7
Do you hear that love?
Cadd9
They're playing our song.
G
Do you think we're ready yet?
Cadd9
Love I'm really feeling it.
Em7                   Cadd9
Do you hear that love?
G
Do you hear that love?

Em7
Do you hear that love?
Cadd9
They're playing our song.
G
Do you think we're ready?
Cadd9
Oh I'm really feeling it.
Em7                   Cadd9
Do you hear that love?
G
Do you hear that love?

G
Lovers dance when they're feeling in love.
D                       Cadd9
Spotlight shinning, it's all about us.
D
It's all, all, all, all.
G
Every heart in the room will melt,
D                                  Cadd9
This is a feeling I've never felt, but
                 D
It's all, all about us.

G
Cause lovers dance when they're feeling in love.
D
Spotlight shinning, it's all about us.
Cadd9                   D
It's oh, oh, oh, oh, all, about uh, uh, uh, uh, us.
(hey-ey hey)
G
And every heart in the room will melt,
D                                 Cadd9
This is a feeling I've never felt but,
Cadd9
It's oh, oh, all,
D
It's all about us.
00:00 / 00:00
Otros videos de esta canción
Repetir
Otros videos de esta canción
Composición de Rachel Taylor / Trevor Kelly
Colaboración y revisión:
1.793 vistas
    • ½ Tono
    • A
    • Bb
    • B
    • C
    • Db
    • D
    • Eb
    • E
    • F
    • F#
    • G
    • Ab
  • Agregar a la lista

    0 comentarios

    Ver todos los comentarios

    ¿Lograste tocar?

    34 Tocaron 0 Aún no

    ¡Graba un video tocando All About Us y envíanoslo!

    00:00 / 00:00
    OK