Cifra Club

Light a Way

He Is We

Cifrado: Principal (guitarra y guitarra eléctrica)
tono: G
(intro)

E|---7---7---7---7---7---7---7---7---7-------------------|
B|---8---8---8---8---8---8---8---8---8-------------------|
G|-----7---7---7---7---7---7---7---7---7-----------------|
D|-------------------------------------------------------|
A|-------------------------------------------------------|
E|-------------------------------------------------------|

(verse)
The morning's here, and we're still caught up in the night.
The sky was clear, and everything felt right.

E|---7---7---7---7---5---5---5---5---8---8---8---8---5---5---5---5-- |
B|---8---8---8---8---7---7---7---7---8---8---8---8---7---7---7---7-- |
G|----7---7---7---7---7---7---7---7---5---5---5---5---7---7---7---7- |
D|------------------------------------------------------------------ |
A|------------------------------------------------------------------ |
E|------------------------------------------------------------------ |

G                             D
   Our time is short, but I'm sure I'll see you soon.
      C                           D
We'll take another walk along the bridge, and underneath the moon.

( G  D  C  D )

G                   D                          C
  What a find, If I could I'd hit rewind and replay.
                       D
All the moments that I wished, I could've called you mine.

G        C         Em  D
  And tonight, I pray.

G
  Light a way, on my love.
D
  Light a way, from above.
Em                       G
  Shine it down, lead me home,
 D
Back to him.

G                         D
  A night away, and we've got a few to go.
         C                                   D
And I've mastered the art of missing, and my smile...
        G                                D
Lacks a glow,  that you showed me how to shine that very night.
          C          D                       G
We were entwined, Oh God how I wish you were mine.

        C      Em  D
And tonight, I pray.

G
  Light a way, on my love.
D
  Light a way, from above.
Em                       G
  Shine it down, lead me home,
 D
Back to him.

(Bring me back to him)

G                             C
Now I lay me down to sleep, I pray my heart you choose to keep.
   Em                       D
And if I die before I wake, all of me is yours to take.
G                         C
If I don't see you again, It'd take all I have within.
Em                          D                      G
Maybe I'll just stay awake, I think I'll just stay awake.

Light a way, on my love.
D
Light a way, from above.
Em                      G
  Shine it down, lead me home,

Light a way, on my love.
D
Light a way, from above.
Em                      G     D      G
Shine it down, lead me home.
00:00 / 00:00
Otros videos de esta canción
Repetir
Otros videos de esta canción
Compositor no encontrado.
Colaboración y revisión:
  • Manuela Meurer
107 vistas
    • ½ Tono
    • A
    • Bb
    • B
    • C
    • Db
    • D
    • Eb
    • E
    • F
    • F#
    • G
    • Ab
  • Agregar a la lista

    0 comentarios

    Ver todos los comentarios

    ¿Lograste tocar?

    7 Tocaron 0 Aún no

    ¡Graba un video tocando Light a Way y envíanoslo!

    00:00 / 00:00
    OK